Phenomena

By Eman

Ellow all i'm back again with my new guitar! It's a ephiphone les-paul custom, grest sound
and it works well for this song.



As requested i've tabbed the song phenomena by Planetshakers. The guitar is in drop D
tuning.

I'm using a Tube screamer(TS7)(Ibanez) and EQ from a zoom G2.1u:
TS7 mode=HOT Drive=7 Tone=7/2 Level=6/2
EQ Bass=-6 Middle=12 Treble=5

Intro and Verse:
Use a lot of palm muting

------------------------------------------
------------------------------------------
----------------------------3--------3s5--
-0--------3--------5--------3--------3s5--
-0--------3--------5--------1--1--1--1s3--
-0--0--0--3--3--3--5--5--5----------------

-----------------------------------------
-----------------------------------------
-----------------------------------------
-0--------3--------5--------------3-0-3--
-0--------3--------5--------------3-0-3--
-0--0--0--3--3--3--5--5--5--5--5--3-0-3--


Again like the first part of the tab, with a liltle variation:
-------------------------------------
-------------------------------------
-------------------------------------
-0--------3--------5--------------3--
-0--------3--------5--------------3--
-0--0--0--3--3--3--5--5--5--5--5--3--

Pre-chorus:
There is an effect that sounds like a helicopter:
I used the tremolo(Tr) from the same pedal zoom G2.1u and a tubescreamer For the guitar2
TS7 mode=TS9 Drive=7 Tone=7/2 Level=6/2
Tr Depht=50 Rate=46 Wave=t0

Here, play a Bb9 then a D9:

Guitar2:

Bb9 D9
|-----||-----|
|-----||-----|
|--3--||--7--|
|--3--||--7--|
|--1--||--5--|
|-----||-----|

Guitar1:
----------------------------
----------------------------
-------------------------3--
-3s5-5-----------3s5-5-3-3--
-3s5-5-----------3s5-5-3-1--
-3s5-5-----------3s5-5-3----

Chorus:
With some palm mutes.

|-----||-----||-----||-----|
|-----||-----||-----||-----|
|-----||-----||-----||-----|
|--0--||--3--||--5--||--8--|
|--0--||--3--||--5--||--8--|
|--0--||--3--||--5--||--8--|

I can't take the solo at the moment, maybe in the future! God bless you guys!

4 comments:

dan said...

hey bro is that the korean one or the chinese one?

did you change the pups?

kenny said...

Its the Korean one.. i changed to SD Jazz Neck & JB pickups.

Anonymous said...

What la dude. Spoiler. Its The Solo That People Wanna know.. Never Mind. It was great attempt though!

Anonymous said...

Yeah..
Where is the solo?