Where the Love Lasts Forever (2008)

Dang! I forgot Jerome had already done this song, and tabbed it out. Anyway, there are some differences (esp in the instrumental), so at least its not a wasted effort.

The instrumental part is really nice for practicing free worship solo-ing, as demonstrated in the video. You will hear two familiar riffs there, hope you can spot them (and that's why you need to exposure yourself to lots of solos and riffs)!




Tabs

Intro & Verse
Repeat each pair of notes several times.
------------------------------------------
---7-----8-------7------5------5----------
-7-----7-------7------7------6------------
------------------------------------------
------------------------------------------
------------------------------------------

Pre-Chorus
With dotted 8th note delay. Use lots of feedback
-10-9---------------------------------
------12-10---------10------10--------
------------9--9h11----9h11-----------
--------------------------------------
--------------------------------------
--------------------------------------

-10-9-----------------------------------
------12-10-------10------10------10----
-------------9h11----9h11----9h11-------
----------------------------------------
----------------------------------------
----------------------------------------

Instrumental
Play each note twice, or use a 8th note delay (like Revolution's instrumental).
--------------------------
-------15----14----15-----
----16----16----16----16--
-16-----------------------
--------------------------
--------------------------

--------------------------
-------15----14----15-----
----16----16----16----16--
-17-----------------------
--------------------------
--------------------------

--------------------------
-------15----17----15-----
----14----14----14----14--
-16-----------------------
--------------------------
--------------------------

--------------------------
-------14----15----15-----
----14----14----14----14--
-14-----------------------
--------------------------
--------------------------

Solo
-----------------------------------
----------------------------8--10--
------7---7-9b11------7---7--------
-s7h9---9----------s9---9----------
-----------------------------------
-----------------------------------

-------10-------12-------14-------12-------
-10h12----10-10----10-10----10-10----10-10-
-------------------------------------------
-------------------------------------------
-------------------------------------------
-------------------------------------------

-12p10----14p10----15p10----14p10------(x2)
-------10-------10-------10-------10------
------------------------------------------
------------------------------------------
------------------------------------------
------------------------------------------

End with
-10---
------
------
------
------
------

12 comments:

Dilpil said...

That solo is a very nice addition to Jeromes tabs, well done.

Anthony said...

Is this in the key of D? :)

Anonymous said...

about the solo. you add it or is it in the album? coz i cant get the solo. i just dont hear it..even the slighest bit of it. well, a job well done on it though.

kenny said...

Yep its in D... I also added the solo in on my own..

Dustin said...

Hey Jerome,
Those solo's are awesome... I want to start doing that! I want to start getting into guitar worship solos.... are their any scales or basic patterns to follow as i'm getting started????? Thanx and God Bless!

Jay said...

Your own personal solo that you put in is just absolutely AMAZING! I love your site.

chubby lubbs said...

that last part's from "here in your presence" right? hehe :)

kenny said...

yep! the first few notes are also from Inside Out, but it isn't that obvious i guess

aaron said...

awesome stuff.

kEv said...

Hei Kenny, awesome solo. I was playing the intro earlier n thought that if u add the A note, it'll be cool, try it and comment please:

------------------------------------------
---7-----8h10p8---7------5------5---------
-7-----7--------7------7------6-----------
------------------------------------------
------------------------------------------
------------------------------------------

kEv said...

k..feel more dashes on the 3rd string:

------------------------------------------
---7-----8h10p8----7------5------5--
-7-----7------------7------7------6----
------------------------------------------
------------------------------------------
------------------------------------------

ignite said...

Actually, it's easier to see the instrumental as triads on the 1st 3 strings. It helps people remember as well! Each note twice. Play a Bm X,X,X,11,12,10(then 11,12,9 and back) next G X,X,X,12,12,10(then 12,12,9 and back) next D X,X,X,11,10,10(then 11,10,12 and back)and lastly A X,X,X,9,10,9 ((then 9,10,10 and back)

It helped me and I hope it'll help others as well!