Where The Love Last Forever

Here are tabs of the song Where The Love Lasts Forever by Hillsong United 2008. Was somewhat off tempo for the intro and instrumental part, apologies!



Intro And Verse: With Delay
--------------------------------
---7------8------5-------7------
--7-(8x)-7-(8x)-7--(8x)-7-(8x)--
--------------------------------
--------------------------------
--------------------------------

Pre-Chorus: With Delay
-10-10-9-9-7-7------------------
--------------10---7------7-----
------------------5-(4x)-7-(4x)-
--------------------------------
--------------------------------
--------------------------------

-10-10-9-9-7-7---------5--5--5--
--------------10--7-7-7--7--7---
-----------------9-9-9--9--9----
--------------------------------
--------------------------------
--------------------------------

Chorus: Overdrive but not so loud

D G Bm A
D G Bm A
D G A Bm
D G A A

Instrumental & Bridge:
--------------------------------
--------12-12-14-14-14-12-14-14-
-9s11-11------------------------
--------------------------------
--------------------------------
--------------------------------

--------------------------------
-14-14-15-15-15-15--------------
--------------------------------
--------------------------------
--------------------------------
--------------------------------

--------------------------------
------12-12-14-14-14-12-14-14---
-12-12--------------------------
--------------------------------
--------------------------------
--------------------------------

--------------------------------
-14-14-15-15-15-15--------------
--------------------------------
--------------------------------
--------------------------------
--------------------------------

----------------------12-12-----
------------15-15---------------
-11-11-14-14-----14-14-----14---
--------------------------------
--------------------------------
--------------------------------

--------------------------------
---15-15---------------14-14-14-
-14-----14-14-----14-14---------
-------------14-14--------------
--------------------------------
--------------------------------

--------------------------------
-14-15-15-15-15-14-14-14-14-----
----14-14-14-14-14-14-14-14-----
--------------------------------
--------------------------------
--------------------------------

9 comments:

Anonymous said...

nice tone =)

morsmordre said...

Hey Kenny, what kind of guitar are you using here? Thanks and be blessed!

Ryan said...

To Jerome: the tabs for the "Intro and Verse" is out of order a little bit.
--------------------------------
---7------8------5-------7------
--7-(8x)-7-(8x)-7--(8x)-7-(8x)--
--------------------------------
--------------------------------
--------------------------------
the order you played in the vid is actually 7-7, 7-8, 7-7, and then 7-5.
just wanted to let you know! but its pretty obvious when ppl play it or watch the vid so it's okay :)

Anonymous said...

What is the setting of delay??

Anonymous said...

Hey man, could u tell me what the chords are in the verses? i love this song
-Jacob L.

Anonymous said...

wow..... i really like your guitar...

maijohn said...

guy im from phillpines....man can you put the tab of pick it up by planetshakers our band wnat to know it .... god bless guyz

maijohn said...

guy im from phillpines....man can you put the tab of pick it up by planetshakers our band want to know it .... god bless guyz

Jon said...

Looks like a Gibson ES, not sure of the exact model though.