Tell the World (2008)

Finally got With Hearts as One! Here's Tell the World from the album.



Tabs
Intro
-----------------------------------------14----
-7------3-------7-----9------10----12----16b18-
-10b11--6b7--6--10b11-12b13--13b14-15b16-------
-----------------------------------------------
-----------------------------------------------
-----------------------------------------------

Verse
---------------------------------------
---------------------------------------
-11------18-----unlike the previous version,
----(x6)---(x3)-slide back down to the next part..
-9-------16----------------------------
---------------------------------------

----------------------------
----------------------------
-11-----16------14--13------
---(x6)----(x3)-------------
-9------14------12--11------
----------------------------

2nd part of the verse
-----------------------------------------
-----------------------------------------
-------14-14-11-11-----------------------
-11-11-------------11-11-12-(x5)-11-x(3)-
-----------------------------------------
-----------------------------------------

Chorus
A E F#m D

7 comments:

Anonymous said...

hey!

thx for your work kenny ;)

luv this song this version is also very cool

guitaraholic :) said...

he kenny.. there's a "wah-ing" guitar at the last part of the song (last chorus) can you tell us the tabs for that part? thanks// :) appreciated.. GOD BLEss

Anonymous said...

uhm...can i use an overdrive instead of a distortion

Anonymous said...

Any reason why most of the "With Hearts As One" videos aren't working???

David C Zaius said...

Cool work... God bless ya and keep up the good work.

JeffreyvdK said...

Can I ask how you mute that one string in the verse? :-)

Patrick said...

Awesome!
What Kind Of Efect/distortion you used?

God Bless