Our God Saves

By Vitt

Lead = Drop D tuning + dotted 8th note delay, ~1 repeat and mix ~50% to get that galloping effect in the intro and verse
Rhythm = Normal tuning
Dots = Palm mute



Sorry about the timing.....it's off in some places. And I can't say that the tab are exact. But most of it is there.

Intro - Lead
-------------------------------------
-------------------------------------
-------------------------------------
-------------------------------------
--------5----------------5s7---------
-0-0-0-0---0-0----0-0-0-0-----0-0----
....... ... ....... ...
D

------------------------------------
------------------------------------
------------------------------------
------------------------------------
--------5----------------7s9--------
-0-0-0-0---0-0----0-0-0-0-----0-0---
....... ... ....... ...
D

Verse - Lead
------------------------------------------
------------------------------------------
------------------------------------------
-----------------------------4------------
--------5---------------------------------
-0-0-0-0---0-0--(x2)--5-5-5-5---5-5--(x2)-
....... ... ....... ...
D G

------------------------------------------
------------------------------------------
------------------------------------------
-----------------------------4------------
--------5---------------------------------
-9-9-9-9---9-9--(x2)--5-5-5-5---5-5--(x2)-
....... ... ....... ...
Bm G

Then repeat first half of the intro and repeat the verse

Chorus - Lead
---------------------------------------
---------------------------------------
-7-9-9s11-9-6-7-------6-7s9-9s11-9-6-7-
---------------------------------------
---------------------------------------
---------------------------------------
D A

------------------------------------
------------------------------------
-7-9-9s11-9-6-7-------2s4-2-4-2-2-2-
------------------------------------
------------------------------------
------------------------------------
Bm G
---------------------------------------------
---------------------------------------------
-7-9-9s11-9-6-7-------6-7s9-9s11-11s14-14-14-
---------------------------------------------
---------------------------------------------
---------------------------------------------
D A

-------------------------------------
-------------------------------------
-7-9-9s11-9-6-7-------2s4-2-4-2-2-2--
-------------------------------------
-------------------------------------
-------------------------------------
Bm G

Instrumental
Lead
------------------------------
---10-10--10------10--10--10--
-s9--9---------s11--11--------
------------------------------
------------------------------
------------------------------
A G/B

-----------------10--10--10-12-
---10-10--10-------------------
-s9--9--------s11--11----------
-------------------------------
-------------------------------
-------------------------------
A/C# G

----------------------------
---10-10--10-----10--10--10-
-s9--9--------s11--11-------
----------------------------
----------------------------
----------------------------
A G/B

-----------------10--10--10-12(s17)-
---10-10--10------------------------
-s9--9--------s11--11---------------
------------------------------------
------------------------------------
------------------------------------
A/C# G

Verse - Rhythm
Strum
-----10--10--10---
-7---7---7---8----
-7---7---7---7----
------------------
------------------
------------------

Prechorus - Rhythm
------------------------------
---3----3---------3----3------
--2-2--2-2-(x2)--2-2--2-2-(x2)
-0----------------------------
----------------0-------------
------------------------------
D A

--------------------------x-
---3----3---------3----3--3-
--2-2--2-2-(x2)--2-2--2-2-2-
--------------------------0-
-2------------------------x-
----------------3---------3-
Bm G

Verse 2 - Rhythm with tremelo
-0---10---------10-10------------------------------
-3-----10--7-------7--7--7-----7-----7--7-----7----
-2-------7-7---7---7--7---7--7---7---7---7--7---7--
----------------------9-9---9-9-9-9--7-7---7-7-7-7-
---------------------------------------------------
---------------------------------------------------

Instrumental
Rhythm
Strum Octaves
-----------------------------
-------------10-12-14-17-15--
-6-7-9-11--------------------
-------------7--9--11-14-12--
-4-5-7-9---------------------
-----------------------------

4 comments:

jonathan ho said...

what do you mean by ~1 repeat and mix~50%?
thanks!


jonathan

vitteh said...

Sorry about that. Should have made it clearer.

It will be different depending on what delay you are using but I'm using a podxt live with the digital delay model.

I've got my feedback level on 35% which sorta gives one repeat. The mix is set at 50% so that the delayed note is just as loud as the note you just played.

Hope that helps!

jonathan ho said...

cool!
thanks
=)

ken2012 said...

You should accept been assertive now, so go in for some replica watch . In all, these attractive timepieces assure you of a continued accord with your wrist at minimum cost. Those who atom the alarm will anticipate that you're cutting the original. Nevertheless, they appear with accomplished adroitness and top superior materials.