None But Jesus 2008

By Jerome

Here's the Instrumental part of None But Jesus... some parts are changed but it's quite
like the old version and the song is in C. There is a second part, more to come!



Instrumental:
---------------------------------
----------8----------------------
-s9-9-9-10---7---7-9-7-----------
-----------10--10-----10--7------
------------------------10-------
---------------------------------

--------------------8----10-----12-
---------8------------------------
-9-9-9-10---7---7-9--9s10--10s12--
----------10--10------------------
----------------------------------
----------------------------------

---------------------------------
----------8----------------------
-9-9-9-10----7---7-9-7-----------
-----------10--10-----10--7------
------------------------10-------
---------------------------------

-----------------------------5---
----------8---------10-------5---
-9-9-9-10----7---7-9--9-7----5---
-----------10--10---------5--5---
---------------------------------
---------------------------------



Zoom G1S settings:

Comp/EFX. oF

Drive: dd
Gain: 18

EQ
Low: 18
Mid: 17
Hi: 17

ZNR/Amp: b0

Modulation: oF

Delay: d3
time: 32

Reverb: A9
decay: 8-10

6 comments:

Dan Leedham said...

Thanks man - the song means so much to me. It was one song that really helped my dad get into HU. thanks for all your work

cmorales said...

You got a great tone in this one!!

calven said...

love your work dude. i was wonder if you could tab out the instrumental from about 6:10. thankss.

No Disponible said...

can i play this instrumental in the key of B.

johng.15 said...

Hey, i was wondering if the same patch can also be used for a G1x? thanks in advance :)

joseph said...

@johng.15 i think they have the same settings.. just chek it out and see if they are the same. but im sure they are. Good day and Godbless