Pleasing to You

By Jerome

Using my brand my new guitar here, a Samick SAN-450 Blues 335. Here are the tabs of this song.



Intro: I use clean sound with delay as usual.
------------------------------------
-10----10----10-------10--10-10-----
--9h11--9h11--9h11h12-12--11-11----- 4x
------------------------------------
------------------------------------
------------------------------------

followed by:
----------------
-5---5-6--------
-6h7-7-5-6------
---------7------
----------------
----------------

Use this part in the verse section as well...

Instrumental: The 1st part is piano driven but i transposed to the guitar and used a pitch shifter to double the note; one is in normal tuning and the 2nd is lower to create a organ sound.

-----------------------------------------
-----------15-15-15-15----------17-17-17-
---------14-------------------14---------
-17-16-17-------------17-16-17-----------
-----------------------------------------
-----------------------------------------

-----------15-14-----------15-15-15-14-14-
----------------15------------------------
---------14-------16-16--14---------------
-17-16-17---------------------------------
------------------------------------------
------------------------------------------

-------17--17--17-----------------------
-15-15---15--15--15-17------------------
-----------------------11--11-11-12-14--
--------------------------------------12-
----------------------------------------
----------------------------------------

2nd part: Use Overdrive or British drive with delay
----------------------------------------
-7h8-7-s15-15--8-7-8-8s17-17------------
-------------------------------------14-
-----------------------------16-17-16---
----------------------------------------
----------------------------------------

-15-14-----15-15-15-14-14---17--17--17---
------15-----------------15---15--15--15-
--------16-------------------------------
-----------------------------------------
-----------------------------------------
-----------------------------------------

----------------------------------------
-17-------------------------------------
----11--11-11-12-14---------------------
-------------------12-------------------
----------------------------------------
----------------------------------------
Quite similar to the 1st part but create more climax and makes the song cooler as well.

3 comments:

jun said...

wow...bago gitara nya..

ei jerome pa2sa nung url ng media boxx..
c nelson 2..
tnx bro..

SamVoo said...

Hi..

can u send me the lyric n chord for this song?? my email is samvoo88@gmail.com

thx

ricardo said...

what is the settings for G1Xnext pedal?