Perfect Love (bass)

By Bass Levite



Verse 2 has a simple riff based on arpeggios.

---------------------------------
---------------------------------
-------2---------2---2(8x)-------
-4-2-4---4-0-0-0---0-------2(8x)-

---------------------------------
---------------------------4(8x)-
-------2---------2---2(8x)-------
-4-2-4---4-0-0-0---0-------------

2 comments:

G said...

Your video is not accessible. I get an error message that says "This is a private video". Can you make it a public video so we can see it?

katy said...

hey!! you did a GREAT JOB!! can u send me the tab to this email please!! katherineirias1@hotmail.com... PLEASE!!