Hosanna (Starfield)

Starfield recently came up with a really great version of United's Hosanna, check it out here, really worth a listen!



Tabs

Intro

... = repeat the note a few times.
----------------------------

----------------------------

-7s9-9-9...-9s7-7...-7s4-4--
----------------------------

----------------------------
----------------------------

-------------------------------------
----------------------------
---------
-7s9-9-9...-9s7-7...-7s12..-12-14..--
----------------------------
---------
-------------------------------------
-------------------------------------

The full band enters.. I made a mistake at the first part, so stick to the tabs.
----10-10-12-----------------
-12----------12-10-10-12-12--

-----------------------------

-----------------------------
-----------------------------
-----------------------------

Verse
Unlike the United version, the nothing much except lightly strumming the chords. Hence i've improvised some lead lines (its way too much to play at church, so just treat this as a practice)
---------10---------7-----7-7---7---
---8-7h8----8p7---------8-8-8-8-8-8-
-7--------------7h9-----7-----------
----------------------s9------------
------------------------------------
------------------------------------

-----------7---7--------10--
-----8-8-----8---8-7--------
-7h9-----9-----------7------
----------------------------
----------------------------
----------------------------

Strum an open G, then..
----------------------------------
----12----15----12----------12-12-
-14----14----14----14-12-14-------
----------------------------------
----------------------------------
----------------------------------

-12-----------------------------------
-15b17-15-12--------------------------
-------------14b16-14-12----12h14-12--
-------------------------14-----------
--------------------------------------
--------------------------------------

------------------------------------
-13-12h13---------------------------
----------14----------12h14p12--11--
-------------14-12h14-----------12--
------------------------------------
------------------------------------

Chorus
G/B C D Em
C G D D

Instrumental
---------------------------------------
-7s8--8--8--8--------12---12---12------
----9--9--9--9s12--12---12---12--12s14-
---------------------------------------
---------------------------------------
---------------------------------------

-----------------------------14--14b15r14------
-13--13--13--13------15--15--------------15-17-
---14--14--14--14s16---16--16--16--------------
-----------------------------------------------
-----------------------------------------------
-----------------------------------------------

Bridge
I took some time to switch my patch, and tap the tempo in. Made a wrong note at 1:45 too, so follow the tabs instead.
------------------------------------------
-13--------10---------12-------12---------
---12-(x4)----11-(x4)---12-(x4)--12-(x4)--
------------------------------------------
------------------------------------------
------------------------------------------

------------------------------------------
-13--------10---------12-------12---------
---12-(x4)----11-(x4)---12-(x4)--12-(x4)--
------------------------------------------
------------------------------------------
------------------------------------------

Quiet Chorus
There is a 'beeping' effect which is used at the front of the song, and reappears here. I approximated it with a natural harmonic:
------
-(5)--
------
------
------
------

12 comments:

Morning said...

Heya man, that was awesome!
Really love what you do, it's really improved my guitar a lot! God bless you kenny

Anonymous said...

What Key is the song in?"If I played the beginning with the original would it work?

DDDX07 said...

song's in key of G so u'll have to transpose it

robert said...

Nice tabbing but personally i dont like this version. I think it's way to electric driven that it sounds really messy..

some random guitar playing guy said...

Hey, who's got the download link for this song? My friend already has it on his iPod Touch, but he doens't tell me where he got it, and MySpace doesn't let me download it off of their website. When anyone gets their hands on a download link for the whole MP3, email me: aznpyro1219@yahoo.com or IM me on AIM: ahhitzpedroxnyc. Thanks!

Anonymous said...

this song with this tab is so amazing wow......
great job =]

Anonymous said...

THis is great and accurate . Can you post the tabs for i will go by starfield in their third album?

Anonymous said...

hey can u do more starfield songs of their new album "i will go"???

Anonymous said...

how must i play if i want to play in the key of E

Joshua said...

hey
arent there three guitars playing simultaneously in the intro??

timothy said...

nice one..may i ask whats the use of the x4 in the bridge..thanks^^

PrestonPerson said...

Your verse line is epic man! I will probably play this at church sometime. If God gave you that gift, use it!