I Will Go

By Jerome

Here're the tabs of the song and it's on the key of G. There isn't much lead lines so i created one in the chorus, hope you like it! Have fun.



Intro & Verses:
-15-----------------
---13-13-12---------
-----------12-------
--------------------
--------------------
--------------------
Am

repeat this riff several times in the intro and the verses.

Followed by a guitar riff.

Strum
--------|------------
--------|------------
-14-----|-16(6x)-----
--------|------------
-12-----|------------
--------|------------
Am Bm

Pre-Chorus: Strum
------8-----
-10---10----
-10---9-----
-10---------
------------
------------
F Am

Chorus: Strum the power Chords
C G Am F repeatedly

Here's the solo i created, in C major. Download the major scale pattern i used here.


-------------15----------------
-17b18r17--15--15-15-s13-13-12-
-------------------------------
-------------------------------
-------------------------------
-------------------------------

-------------------------------
-------------------------------
-9h10h12-10-9------------------
-------------10-9---14b15r14---
-------------------------------
-------------------------------

-------------------------------
-------------------------------
---12-10-s9-9------------------
-10-----------10---14b15-------
-------------------------------
-------------------------------

-------------------------------
-------------------------------
-------------------------------
-10-10-12-14-15-17-------------
-------------------------------
-------------------------------

-------------------------------
-------------------------------
-------------------------------
------------------------17-----
-15-17-s19-19-17---17h19-------
-------------------------------

-------------13-13-12-12---------
---12--13--15-------------13-12--
-12--12--12---------------------
-------------------------------
-------------------------------
-------------------------------

-------------------------------
---------------12-13-----------
-9s12-12-----------------------
---------12-10-----------------
-------------------------------
-------------------------------

Instrumental:
Strum the power chords

Am G Bm F

-15-15-17-17-19-19-------------
------------------20-20s18-----
-------------------------------
-------------------------------
-------------------------------
-------------------------------

---20-19--------------------------
-20------(6x)--20-----------------
------------------19-19b20r19--17-
---------------------------------
---------------------------------
---------------------------------

Bridge: Strum the Inversion Chords
-5-------9-----------
-5---8---8---10------
-5---7---9---10------
-7---5---9---10------
---------------------
---------------------
Am G Em F

13 comments:

Anonymous said...

How can you make the solo in c majon scale when the key of the song is G?

Anonymous said...

ei bro..i think ur effects is dry..
juz listen to kenny's effect..

juz want to say so..i think u lack of reverb..i'm not sure but i think it is.

Anonymous said...

dude you suck. your guitar is out of tune and your lead lines are so dry and predictable. keep working tho...just not teaching. PLEASE!!!

Fon said...

Nice blog. I will keep reading. Please take the time to visit my blog about Guitar Lesson

Regan said...

uhhh just play the chords during the chorus you dont always need to be playing lead it can get lame after a while.

Anonymous said...

Dude im sorry but that "solo" is in the wrong key. Listen to it really close. it should be in the key of G. Isn't that what you said???

Anonymous said...

for the record...he is playing the song in the key of C...he made a typo...look at the chords for the chorus...C G Am F...the tree major chords in C (tonic, predominent and dominent) are C, F, and G. The song is in C, and so is his solo...

Anonymous said...

If you don't have anything positive to say, just shut up already. This is a great site and i learned tons of stuff here. Keep up the good work!

Anonymous said...

suggestion: the 3rd inverted chord on the bridge 9,9,8,9 should be 9,9,8,10.

Erik said...

Great improvisation! i like it a lot! very nice :)

Good job, man :D

God bless!!!

The Remnant said...

for the record, the only note different between the Cmaj and Gmaj is an F#...big deal you bunch of jerks. lay off the man. And it proly was just a typo.

Glenn said...

I love how people say stupid stuff and don't even put their name. If the solo sucks where is your version? Takes a big man to hide behind anonymous and criticize that which you do not offer an alternative.

Big man, go wash your face. Your Mom says it's time for ni- ni

PK said...

For Anonymous... dude your a Christian right?? If you are a Christian then SHAME on you , because when you Critisize a video its like you are the best guitarist in the world ... If you are a great guitarist then Praie God and thank Him and dont be so proud of yourself or God will Humble you ... because Im Sick of seeing your bad review in this great site

just saying..