Surrender All

By Daryl

Here's Surrender All by the Parachute Band.



-------------------------------------------------
-------------------------------------------------
-8-8-8-------8----8-8-8--------------------------
-------6-8-9------------6-8-9-8-8/6\8-6-8/9\8-6-8
-------------------------------------------------
-------------------------------------------------

--------------------------------------------------
--------------------------------------------------
-8-8-8\11--8\11--13-13-13/15--13---13-13-13/15--11
--------------------------------------------------
--------------------------------------------------
--------------------------------------------------


-------------------------------------------------------
-----------------------------------------12----12----12
11-11-11-13-11--13-13-13-15-13--11-11-11----11----11---
-------------------------------------------------------
-------------------------------------------------------
-------------------------------------------------------

1 comment:

Team said...

hey. what are the chords? thanks