Hosanna

Here's the instrumental to Hosanna by Paul Baloche. It is fairly simple as the notes repeat quite abit. Notice how the solo builds up the music in the 2nd half by using higher notes.



Tabs
--------------------------------------------
-------------------------------------12-14--
-5s-11h12-11h12-11h12-11h12-11h12-14--------
--------------------------------------------
--------------------------------------------
--------------------------------------------

----------------------------------
----------------------------------
-11h12-11h12-11h12-11h12-11h12-14-
----------------------------------
----------------------------------
----------------------------------

-------10--------10s12--
------------------------
-11-12-----11-12--------
------------------------
------------------------
------------------------

-10-12--------10-12-----------10-12-------
-------12-10---------12-10-13-------12-10-
------------------------------------------
------------------------------------------
------------------------------------------
------------------------------------------

-------10------10-------10---------
---------------------------8-10-8--
-11-12----11-12---11-12------------
-----------------------------------
-----------------------------------
-----------------------------------

6 comments:

Anonymous said...

great that you tabbed the song, but you can't hear the song over your guitar... I can figure it out, but it just kind of bugs me...

Anonymous said...

what delay are you using? can you tab the rest of the song? If so please send to slater2000_99@hotmail.com.

thanks and God bless

Anonymous said...

YOU CAN WATCH HIM LIVE HERE:

http://www.youtube.com/watch?v=1TIg2QOzPpg

I THINK HE STAYS ON ONE STRING MOSTLY.. YOU DID A GREAT JOB THOUGH!

THANKS
GOD BLESS!

finny22 said...

hey whts the chords for this song they dont sound like regular chords?

Ming said...

is it possible to post a video of the chorus part of this song? im stuck on what shapes to use

tony said...

what effects did you use? great tabbing!