Perfect Love

By Jerome

Here're the tabs that some of you have requested. The instrumental portion is pretty nice too.



I also want to thank Chrizza from the forum for contributing the intro and bridge tabs!

Intro/Verse
:

----------2---------------2-------
------0-----0---0-----0-----0---0-
----3---3-----3-----3---3-----3---
------------------2---------------
----------------------------------
--4-------------------------------

----------2---------------2-------
------0-----0---0-----0-----0---0-
----3---3-----3-----3---3-----3---
------------------4---------------
--2-------------------------------
----------------------------------

Pre-Chorus: (rhythm guitar)
I just play the power chords

G#m E B F# G#m E (strum last chord)

but inversion chords can go as well as Chrizza tabbed out.

-7--7--7--6--7--7------------------
-9--9--7--7--9--9—(strum last chord)
-8--9--8--6--8--9—-----------------
-----------------------------------
-----------------------------------
-----------------------------------

Verse 2: rhythm guitar or 2nd guitar
I use a gain with long sustain.
------------7-----------------
--(5)-5-4-7---5-4-------------
------------------6-----------
------------------------------
------------------------------
------------------------------

Followed by lead guitar with little bit of delay:
------------------------------
------------------------------
-11(12x)-9(4x)-8(8x)-6(8x)----
------------------------------
------------------------------
------------------------------

------------------------------
------------------------------
-9-9-8-8-4-4-4-4-9(12x)-------
------------------------------
------------------------------
------------------------------

Instrumental: little bit of delay
-------------------------------
-9-----9-----9-----11----12----
-12b13-12b13-12b13-14b15-15b16-
-------------------------------
-------------------------------
-------------------------------

-------------------------------
-12----12----14----16----16----
-15b16-15b16-17b18-19b20-19b20-
-------------------------------
-------------------------------
-------------------------------

-------------------------------
-16----14------19-19--19-19----
-19b20-17b18-16-----16---------
-------------------------------
-------------------------------
-------------------------------

-------------------------------
---19-19--19-19---19-19-16-----
-16-----16-----16-------19b20--
-------------------------------
-------------------------------
-------------------------------

--------------------------------
-16-----16----16----16----16----
-19b20--19b20-19b20-19b20-19b20-
--------------------------------
--------------------------------
--------------------------------
Don't release the last bended note as the note ["16"] will be played several times shown below.

--------18---------------------
-16(6x)---19-16----16----16----
-------------19b20-19b20-19b20-
-------------------------------
-------------------------------
-------------------------------

---------14-14--14-14--14-14---
-16----12-----12-----12--------
-19b20-------------------------
-------------------------------
-------------------------------
-------------------------------

---14-14--14--14---------------
-12-----12--12-----------------
-------------------------------
-------------------------------
-------------------------------
-------------------------------

Bridge:
----------14-11--11----------14-11-------
-------12------14---------12-------14-12-
-11h13--------------11h13----------------
-----------------------------------------
-----------------------------------------
-----------------------------------------
you can play the notes "11h13" as "11s13" instead.

15 comments:

Anonymous said...

Its actually easier played up at capo 4. Try it, i was gonna tab it out and do a vid but never had the time!

but yeh, its capo'd not open strings as such.

Anonymous said...

the second part of the second verse is wrong...its played on the g-string.


k3vinth3sk8ter..

Chrizza said...

Hey!
First of all, you rock jerome! thats exactly the way i play the instrumental, only on the b string instead of the e, haha.
To anonymous 1: yeah, you can capo it, but i didn't have one on me when I tabbed that haha. :P

and yes, you can play that second part of the verse, but it really makes no difference.

Chrizza

Anonymous said...

Nice one !

http://guitar.edoodoo.com

forresal said...

Excellent work, Chrizza!!

Thanks for sharing with us!
Forresal

forresal said...

Whoops forgot to add Jerome to my earlier comment! Sincere apologies...

F

Guitar_man32@yahoo.it said...

No problem... It's not my work but by
God that gives me annointing. I always say It's all by The GRACE OF GOD! :D GBTA

Anonymous said...

any chords for the chorus please?

Anonymous said...

hey jerome that is the sweetest shirt i have ever seen, where can i order one?

Lee said...

Hey what key is this in?

Anonymous said...

can tab the chorus two.
it sound like one guitarist is doing chords.
and the other guitarist is hitting notes.
wat notes is the guitarist doing?

Pursuing the Gold said...

Capo 4 - Verse

----------------------------------
----------3---------------3-------
------0-----0---0-----0-----0---0-
----4---4-----4-----4---4-----4---
------------------3---------------
--0-------------------------------


----------------------------------
----------3---------------3-------
------0-----0---0-----0-----0---0-
----4---4-----4-----4---4-----4---
------------------5---------------
--3-------------------------------

Jam said...

Chords for chorus: B5 F#5 G#5 E5

heatfan8933 said...

where did you guys get this cd?

David said...

LOVE THE SHIRT!!!

You can buy this cd on the Hillsong website or you can download it for free:)