Because of Your Love

k: It has been awhile since a new contributor has come on board; so I'm glad to introduce Vitt [aka Vitteh in the forums] who has created a lesson on Paul Baloche's Because of Your Love.

By Vitt



-----------------------------------------------
-----------------------------------------------
-9-7--9-7-9------------------------------------
-----------7s9-9-7-7s9s5--0-5s7-0-7s9-0-9s12---
-----------------------------------------------
-----------------------------------------------

-----------------------------15-15-------17----
-----------------15--------12----------15------
------16-12-12-12--14-12h14-------14h16--------
-12h14-----------------------------------------
-----------------------------------------------
-----------------------------------------------

4 comments:

irajames said...

dude! is that a white falcon??

vitteh said...

lol.....i wish

that's an epiphone lp custom

David Toh said...

yo man... mr. vitt! nice! very nice! lol

dan said...

how much did you get your guitar for?
any bad things about it?
im interested in buying the same guitar lol