Angels We Have Heard on High

Made this remix some time back, thought some of you might like to try it out since Christmas is coming. Full version at the bottom. Enjoy!



I started with the intro, less delay and at a slower pace, as the mutes are quite tricky.

Tabs

Intro
Interspersed with mutes
----------------------------
-----------------8-7---7----
-7-7-7-7-7-7....-----9------
----------------------------
----------------------------
----------------------------

----------------10-9-7-----------------
-----------------------10-8-7----------
-7-7-7-7-7-7...---------------9-7------
---------------------------------------
---------------------------------------
---------------------------------------

Verse
1st guitar
-------------5-----
-7---8---7---5-----
-7---7---7---7-----
-------------------
-5---5---5---------
-------------------

2nd guitar: use harmonics
-----------------------------
---------7--7----------------
-----7---------7---------7---
-7-7---------------7--7------
-----------------------------
-----------------------------

Chorus
chords:
D Bm Em A
D/F# G A
D G A



Full version:

2 comments:

Thomas said...

I really liked this. haha it would be pretty sweet if you get somebody to sing. But props!!

longge said...

replica Tag Heuer Link Watch are advised to be symbols of people's amusing cachet and privilege. A lot of agog fashionistas dream of owning one piece. It is accepted to all that ceramics is a affectionate of adorable and affecting material, slippery, aching and abiding as diamond. Such a affectionate of actual is the admired of women.