My Saviour Lives (Radio Version)

By Jerome

Here are the tabs of the song My Saviour Lives(Radio Version) by Desperation Band.




Intro: ( Fuzz stack )
----------------------------
----------------------------
-7-------------7------------
--9-9-9-8-9-9-9-9-9-9-------
----------------------------
----------------------------

----------------------------
----------------------------
----------------------------
-14-14-14-15----------------
----------------------------
----------------------------

Verse:
----------------------------
----------------------------
--8-(4x)-9-9-----8-(4x)-6-6- rpt 2x
-9--------------9-----------
----------------------------
----------------------------

Followed by C#m muted then open

Chorus: (Power Chords except the 1st E)
B G#m E B E
B G#m E B E

Then going to the Bridge just play
B and E (power chords).

Bridge: Clean guitar
-------------------
-------------------
-------------------
-------------------
-9--6---7--11------
-7--4---5--9-------
B G#m A C#m

Followed by the 2nd distorted guitar playing the same chords.

4 comments:

AcidRain said...

Here's the tab for the "normal" intro

Intro:
--------------------------
--------------------------
4-6-9-8-9-8-6-4-6-9-8-9-11
--------------------------
--------------------------
--------------------------

Absolutely love this site, been coming here for ages! Thanks to all the people who contributed :)

myke said...

what do you mean, Fuzz stack!? on the intro....

Anonymous said...

Thanks for the info! A minor correction on the intro: the first "8" should be a "7".

Also, it may be easier to play the last few notes of the intro on the G string:

E|----------------------------------
B|----------------------------------
G|-7---------------7-------9-9-9-10-
D|---9-9-9-7-9-9-9---9-9-9----------
A|----------------------------------
E|----------------------------------

longge said...

replica Tag Heuer Carrera Watch accept becoming close acceptability all over the apple for their affectionate accurateness and attention as able-bodied as blatant design. In addition, the beauteous appearance is aswell the capital acumen why added and added humans go in for them. Nowadays, avant-garde humans admiration alluringly advised timepieces with which they can accentuate their appearance as able-bodied as announcement their personality.