Alive Overture

Here's Alive Overture from Israel Houghton's Alive in Africa album. The parts are meant for strings, but I've played them on the guitar instead. Very good exercise, much like a tongue twister, for the fingers. Do give it a try! Scores also at the bottom, underneath the tabs.



Also, check out this guy doing the song on two hands on the keyboard, pretty neat!

Tabs
------------------------------------------
------------------------------------------
--7--8--7-8-7p6-5---7-8-7p6-5---------5-7-
------------------------------6---6-8-----
--------------------------------8---------
------------------------------------------

--------------------------------------------
--------------------------------------------
-5h6h7-8--7-8-7p6-5---7-8-7p6-5---------5-7-
--------------------------------6---6-8-----
----------------------------------8---------
--------------------------------------------

---------------------
---------------------
-5h6h7-8--7-8-7p6-5-- bass fill..
---------------------
---------------------
---------------------

------------------------------------------
--------------------------------------6-8-
--5-7--8--7-8-7p6-5---7-8-7p6-5h6--6-8----
-8--------------------------------8-------
------------------------------------------
------------------------------------------

----------------------------------
-6h7h8h9--------------------------
----------12-13-12p11-10----------
----------------------------------
----------------------------------
----------------------------------

------------------------------------10-
----------------11p10------------------
-12-13-12p11-10-------13-11-------11---
----------------------------12-13------
---------------------------------------
---------------------------------------

-----------------------------------
-13h14h15-16--15-16-15p14-13-------
-----------------------------------
-----------------------------------
-----------------------------------
-----------------------------------

----------------------------13-15--
-15-16-15p14-13h14----14-16--------
-------------------15--------------
-----------------------------------
-----------------------------------
-----------------------------------

-13h14h15-16--15-16-15p14-13--12p11-10-
---------------------------------------
---------------------------------------
---------------------------------------
---------------------------------------
---------------------------------------

-9p8-7--6p5-4--12p11-10-----
-------------------------12-
----------------------------
----------------------------
----------------------------
----------------------------

4 comments:

Anonymous said...

WOW

JSHerrera4 said...

CAN YOU PLAESE TAB IT'S ALL ABOUT YOU BY ISRAEL HOUGHTON THE WHOLE SONG.....:D

james said...

can you please tab the lead parts to i know who i am?

james said...
This comment has been removed by the author.