All to You

By Daryl



Tabs
|-14p12------14p12-----16---14--14--12-
|-------12---------12------------------
|--------------------------------------
|--------------------------------------
|--------------------------------------

|--------------------------------------


|-14p12-----14p12----16--17--16--14h16p14-12-
|-------12--------12-------------------------
|--------------------------------------------
|--------------------------------------------
|--------------------------------------------
|--------------------------------------------
twice

third time
|-14p12------14p12-----16---14--14--12-
|-------12---------12------------------
|--------------------------------------
|--------------------------------------
|--------------------------------------
|--------------------------------------

|-12h14h16-------16p14p12---17--16--14h16-12-
|-----------12-------------------------------
|--------------------------------------------
|--------------------------------------------
|--------------------------------------------
|--------------------------------------------

2 comments:

Anonymous said...

That's pretty far off...

Martin said...

can you tab the actual solo, not the outro please?