I Know

By Jerome

Here's one of the new songs Desperation band's Everyone Overcome... Enjoy! I got my new pedal a Zoom GM200 so here are my settings... http://www.savefile.com/files/1187415



Tabs
Intro: Strum the following power chords
A A
A A D C
A A C D
A A D C
A A C D
A A


Verse: with Delay
-9--9--9--9--9--9--10-9-
--10-10-10-10-10-10-----
------------------------ rpt 2x
------------------------
------------------------
------------------------

-9--9--9--9--9--9-------
--10-10-10-10-10-10s----
------------------------
------------------------
------------------------
------------------------

Chorus: Strum the following power chords
A E F#m D
F#m E

Followed by octaves...
----------------------
----------------------
-7--9--11-14----------
----------------------
-5--7--9--12----------
----------------------

Bridge: just play this part with
D A

I added palm mutes in the instrumental for fun.

4 comments:

Anonymous said...

in the bridge you should mute the power chords for like 3/4ths of the bridge then unmute to create a bigger build-up

Anonymous said...

The bridge is missing a Chord before you go to D.

Anonymous said...

Actually, on the Bridge there are two guitars playing...one is playing D and the other is playing Bm. It sounds like the rest of the band is playing Bm as well and only one guitar plays the D

mike said...

actually the Bridge is |Bm7|D|A|A|