Taking Over Now

By the Desperation Band. Forgot to change the title of the video - whoops!



Tabs

Intro/Verse
-2-2--9--9--4-4-4-5-4h5p4p2p0----
-2-2--10-10-5-5------------------
---------------------------------
---------------------------------
---------------------------------
---------------------------------

Instrumental
Use wah & delay generously.
---------------------------------
-10-12-9--10-12-17b19---------[x2]
---------------------------------
---------------------------------
---------------------------------
---------------------------------

-------14--------17----
-14-17-----14-17-------
-----------------------
-----------------------
-----------------------
-----------------------

Chorus (Re-entry)
Play the bass notes/muted power chords:
A E F#m D

A E Bm-C#m-D-Fdim


Chorus

----------------------------------
-10--7--10--10--10--7-11-13-14-10-
-9---7--9---7---9---7-------------
-7---7--7---7---7---7-9--11-12-8--
----------------------------------
----------------------------------

6 comments:

Guitar_man32@yahoo.it said...

K are sure the last 4 group of notes in the chorus are played that way? Coz you played it on the video as octaves. Coz you wrote this...

Chorus
----------------------------------
-10--7--10--10--10--7-------------
-9---7--9---7---9---7-11-13-14-10-
-7---7--7---7---7---7-9--11-12-8--
----------------------------------
----------------------------------

But I Think you want to write it in this way.

Chorus
----------------------------------
-10--7--10--10--10--7-11-13-14-10-
-9---7--9---7---9---7-------------
-7---7--7---7---7---7-9--11-12-8--
----------------------------------
----------------------------------

Anonymous said...

hey guys any idea where i can find lyrics for this song? (and other ones too from this album)

Temo said...

Use Verticalmusic.com they have everything you need there!!

Anonymous said...

the whole palm muted part if not much to ask i was wonder can u tabs those chord that u play because what im playing sound way off
thank you

Anonymous said...

One more change on the chorus is required:

Chorus
----------------------------------
-10--7--10--10--10--7-------------
-9---7--9---7---9---7-11-13-14-10-
-7---7--7---7---7---7-------------
----------------------9--11-12-8--
----------------------------------

wangzi said...

Hollywood arch appearance luminaries Pandora Bracelets Jones, abatement Pandora armlet auction Jennifer Aniston, action appearance artist pandora bangles auction Donna Karan, Diane von Furstenberg pandora necklacess and so on. GHD stylers. Abounding added styles of charms aswell date which become absolutely eccentrics of consequences.