To Know Your Name

Here's To Know Your Name by Hillsong. Although Jerome has tabbed it, I find myself using different notes, so here it is. The instrumental portion has been changed more, and the chorus as well. I've also added tabs for the bridge. Lastly, I've used the backing track instead, so the vocals don't mix with the guitar parts.



Tabs

Intro & Verse
I play the intro once through only in the video. The verse's timing is more regular.
------------------------------------------
-------12-10----12-10----12-10----10------
----11-------12-------11----------------9-
-12----------------------------11----12---
------------------------------------------
------------------------------------------
Bm G D A

Verse (rhythm)
-----------------------------
------------3----------------
-----4----2--------0------2--
---4------------4------2-----
-2------------5------0-------
--------3--------------------

Strum G, then chorus.

Chorus
-----5--------5-------0--------0---
-------5--2-------------3--------3-
---2--------2-------2--------0-----
-0---------------------------------
------------------2----------------
---------------------------3-------

Instrumental
------10----10----9----10---------
-7s10----10----10---10----10------
----------------------------------
----------------------------------
----------------------------------
----------------------------------

---10--------------------------9---10--
-7----7--8---10------------------------
-----------7----7---7-7h9s11-9---9-----
---------------------------------------
---------------------------------------
---------------------------------------

This part is a little stretchy...
------12----14-------15----17-----
-8s10----10----10s12----12--------
----------------------------------
----------------------------------
----------------------------------
----------------------------------

----------14----------------------
-15-15h17----17--14----15---------
--------------------14----14------
----------------------------------
----------------------------------
----------------------------------

-------10-----------10------------
----10----10-----10----10---------
-11-----------12------------------
----------------------------------
----------------------------------
----------------------------------

----------14----------------------
----------------14----15----------
-11-12s14----14----14----14-------
----------------------------------
----------------------------------
----------------------------------

-----0----------
-7-------8--7---
---7---7--------
----------------
----------------
----------------

Bridge
Similar to the verse
-------2---------------------------
-----3-----------------------------
-2s4----------2-------0-------2----
------------0-------4-------2------
------------------5-------0--------
----------3------------------------

Them strum G to return to chorus.

6 comments:

Anonymous said...

Thank you so much Kenny, you must have spent lots of time doing it :) God bless u :)

Anonymous said...

you have cleared lots of problems up for me now :) thanks from new zealand

desiree said...

How do you get the backing track like that? Did you use audacity again or is it another programme? I downloaded Audacity but have no idea how to use it =S

Anonymous said...

Tune your guitar,
440 hz if it's not.

Thanks

Anonymous said...

How do you get the backing track like that? Did you use audacity again or is it another programme? I downloaded Audacity but have no idea how to use it =S

Backing track is a separate album

tesza_gurl03 said...

what kind or name of your electric guitar are you using??

reply pls.
thank you