To Know Your Name

By Jerome

This song's chorus is somewhat like Hosanna. Use some delay and overdrive in instrumental part. Have fun!



Intro:
-----7-7----7-7----7-7--------
--7-7---10-8---10-7---10-10---
-7----------------------6--7-9 (2x)
------------------------------
------------------------------
------------------------------

Verse:
---7----7----7------10--------
--7-10-8-10-7-10-6-7--9-------
-7----------------------------
------------------------------
------------------------------
------------------------------
repeat til 1:21

Chorus: repeat several times
---5---5-------------
-----------5---5-----
--7-7-7-7-7-7-7-7----
-7-------4---5-------
-----7---------------
---------------------

Instrumental:
------10--10--9--10--10--------
-7s10---10--10-10---7---7--5---
-------------------------7--7--
-------------------------------
-------------------------------
-------------------------------

---------9-10--------12-14------15-17-
------7-------------------------------
-7-7h9--9-9-----9s11-------12s14------
--------------------------------------
--------------------------------------
--------------------------------------

----------14--------
-15-15h17----15-----
--------------------
--------------------
--------------------
--------------------

--9--10-----10------10---
---10-----10--10--10--10-
--------11------12-------
-------------------------
-------------------------
-------------------------

-----10---9--10-----10-----------
---10--10--10-----10--10---------
-11-------------11------12-------
---------------------------------
---------------------------------
---------------------------------

13 comments:

Anonymous said...

Great Work Jersome.... : )

Anonymous said...

Have u the chord of the song?

Flavio said...

yes!
could you show us the chords??^^

Anonymous said...

tabs for the solo is off off off ........

Anonymous said...

I dont think so that the tabs are
mess! they all in order as u see!
The vid and the tabs of instr. are
match!

By Jerome

Anonymous said...

Hey great tab but the chords are D A B#m G they are the same throught the song

Anonymous said...

The tabs are great but you messed up a little bit at the last part of the solo where you added the 5 and left out a 14 on the high E string

Anonymous said...

Tks Jerome for what you are doing. Keep up the good work :)

Anonymous said...

amazing stuff...
Keep it up...
this helps a lot a people

sly said...

hey bro dude this is great keept it up it has help me alot im up for youth friday nite thnks for the help

matt said...

I love this site.

I think the end of your verse tab is shifted by a string. Shouldn't it be pretty similar to the intro?

Cory said...

Intro/Verse: Bm G D A

Chorus/Solo: D A Bm G

You're welcome

hills0ngun1t3d said...

the chords are Bm, G, D, A for the verse and D, A, Bm, G, for the chorus.

Theres no such thing as B#m, it would be a Cm