In the Mystery (Bass)

By Bass Levite

Pluck it fast in 16th notes like the solo of "Salvation is Here"!




Intro: (2x)
--------------------------
-------------13-13-13-13--
-14-14-14-14--------------
--------------------------

--------------------------

--------------------------
-14-14-14-14-16-16-16-16--

--------------------------

--------------------------

-------------13-13-13-13--

-14-14-14-14--------------

--------------------------

--------------------------
--------------------------
-14-14-14-14-16-16-16-16--

--------------------------

-------------------------
-------------13-13-13-13-

-11-11-11-11-------------

-------------------------

-------------------------
-9-9-9-9-11-11-11-11-----

-------------------------
-------------------------

-------------------------
-------------13-13-13-13-
-11-11-11-11-------------

-------------------------

-------------------------

-9-9-9-9-11-11-11-11-----

-------------------------

-------------------------

3 comments:

Anonymous said...

wow you're pretty fast at uploading new songs! (:

guitar4christ04 said...

This is close but a couple notes and timing is off...

the riff pattern is AABB

Riff A
-------------------------
-------------13-13-------
-14-14-14-14-------14-14-
-------------------------

-------------------------
-------------------------
-14-14-14-14-16-16-16-16-
-------------------------

Riff B
-------------------------
-------------13-13-------
-11-11-11-11-------14-14-
-------------------------

-------------------------
-------------------------
-14-14-14-14-16-16-16-16-
-------------------------

wangzi said...

These pandora bracelets sale charms are projected and renewed every year which add to the charm’s collection. Energizing contrives accompany in abide yield added beforehand in them. These Pandora charms fit to all sorts of eudemonia and junctures. They are on a approved base congenital of absolute argent and abatement pandora armlet .