You Are My Strength

By Jerome

Here's the tabs of this song. The lead starts at 00:02, repeat each note several times (refer to the video. The timing of each segment is indicated above the tabs.


0:28 0:53 1:18
---7-|---|---7-|---|---7-|----|----
-8---|-7-|-8---|-7-|-8---|----|-7--
-----|---|-----|---|-----|-7--|----
-----|---|-----|---|-----|----|----
-----|---|-----|---|-----|----|----
-----|---|-----|---|-----|----|----
1:27 1:43 1:53 2:13
---7--|---|---7-|----|10-9-|-----|----
-8----|-7-|-8---|----|-----|---8-|-7--
------|---|-----|-7--|-----|-7---|----
------|---|-----|----|-----|-----|----
------|---|-----|----|-----|-----|----
------|---|-----|----|-----|-----|----
2:18 2:30
----|---7-|---|---7-|---
-7--|-8---|---|-8---|-7-
----|-----|-7-|-----|---
----|-----|---|-----|---
----|-----|---|-----|---
----|-----|---|-----|---

4 comments:

Dave said...

Jerome nice work mate.

What delay setting did you use for this?

Thanks
Dave

Anonymous said...

hi! thanks for this..

can i ask what was the chords of this song? You are my strength song.
a very powerful song.
blessings to you

Anonymous said...

i prefer
-------------------
-------8s12--------
-------------------
-------------------
-------------------
-------------------
throughout
repeatedly
then
---------------------------
-------8s-12s-7-8s-12s-7---
---------------------------
---------------------------
---------------------------
---------------------------

Sean K said...

Yeah I like the slide too. If you listen closely the guitarist clearly is sliding notes. Either way it's the same note.