Here In My Life

Here's Here In My Life by Hillsong, in their new Saviour King album. I used the same effect as Hosanna here.



Intro
The guitar parallels some of the piano's notes, on the higher register.
------14----------14----------14------------
---------14-16-------14-16-------14-16------
----13---------15----------16----------13---
-16-----------------------------------------
--------------------------------------------
--------------------------------------------

Chords: E F# G#m E

Verse
B E B E
B E G#m E

Pre-Chorus
----------------------------------
-------11----11----11-12---12-----
-11-13----13----13-------9----9---
----------------------------------
----------------------------------
----------------------------------

------------------6--7---
--------12---------------
-8h9s11----8--4s6--------
-------------------------
-------------------------
-------------------------

----------------------------------
-------11----11----11-12---12-----
-11-13----13----13-------9----9---
----------------------------------
----------------------------------
----------------------------------

------------0-
--------12--0-
-8h9s11-----9-
------------9-
------------7-
--------------

Chords:
F# E B B
F# E G#m E

Chorus
------9-------9-------11-------9--
-12------11-------12------12------
----11------11-------9-------11---
----------------------------------
----------------------------------
----------------------------------

Chords: B F#m C#m E

Bridge
Chords: E F# G#m E

6 comments:

dahn said...

hey kenny great tab, but btw, what xtl patch do you use for this and hosanna?

kenny said...

Patch 2B, less the stomp, and with delay.

ryan said...

hey kenny isn't the 10th note that you put as --17--- did you actually play that as a ---15--- in the vid?

josh43758 said...

Awsome job man. I really appreciate you posting this tab.I'm a guitar noob I'm just learning and tabs really help out alot. I love Hillsong and you did excellent. Keep up the good work.
Have an excellent day.

mhike said...

great tab. can u send me the basics of lead guitar? god bless

nicocrtym said...

hey kenny do you have zoom g1x patch setting for this song?