Hosanna Instrumental (Acoustic)

By Daryl

Here's the instrumental found on the preview version of Hosanna.



k: Daryl has roughly written the notes out, it'd take a little figuring out with the video to get it, but it's manageable.

-7-7-9-11-
-5-7-9----
---9-9----
-6-9------

-4-7------

----------

k: Add an open 'E' string in between every note. You should try playing all the notes on the E string, will put that up on the electric guitar version.
-12-11-------------------12-11-------------
-------14-12-------------------14-12-------
-------------11-13-11-9--------------11-13-
-------------------------------------------
-------------------------------------------
-------------------------------------------

----12----12-14
-10----10------
---------------
---------------
---------------
---------------

3 comments:

Anonymous said...

can u tab the part with fret 9, as the rhythm? or something

Sandesh said...

where can i find the preview of this song, is it an acoustic version?

Sandesh said...

acan someone pleaase answer the question???