Stand

Here's Stand from Planetshaker's Saviour of the World album. The guitar parts are pretty good, but I don't really fancy the melody.



Dave has also tabbed the song out. Download his version which includes the bass tabs as well. His version varies slightly, so do check it out - I don't claim to be 100% correct!

Intro
-----------------------------
-----------------------------
-----------------------------
-----------------------------
---------6-6-7-7-6-6-----6---
-7-7-9-9-------------9-9---7-
B F#m E E

Then play an octave higher:
---------------------------------
---------------------------------
-----------8-8-9-9-8-8-------8---
-9-9-11-11-------------11-11---9-
---------------------------------
---------------------------------
B F#m E E

Verse
Mute the bass notes with your picking hand.
---------------------------------
---------------------------------
-----4-3~------4-3~------3h4-----
---------------------------------
-2-2-------2-2-------2-2---------
---------------------------------
B

---------------------------------
---------------------------------
-----4-3~------4-3~------3h4-----
---------------------------------
---------------------------------
-2-2-------2-2-------2-2---------
F#

---------------------------------
---------------------------------
-----4-3~------4-3~------3h4-----
---------------------------------
---------------------------------
-0-0-------0-0-------0-0---------
E

---------------------------------
---------------------------------
-----4-3~------4-3~------3h4-----
---------------------------------
---------------------------------
-0-0-------0-0-------0-0---------
E


Pre-Chorus
I missed the first note in the video, but you can see how its played the 2nd time round.
-----------------------------
----
---------------------------------
-----4-3~------4-3~------3h4-----
--6-------6-6-------6-6----------
---------------------------------
---------------------------------
G#m

---------------------------------
---------------------------------
-----4-3~------4-3~------3h4-----
--4-------4-4-------4-4----------
---------------------------------
---------------------------------
F#

---------------------------------
---------------------------------
-----4-3~------4-3~------3h4-----
--2-------2-2-------2-2----------
---------------------------------
---------------------------------
E

---------------------------------
---------------------------------
-----4-3~------4-3~------3h4-----
--2-------2-2-------2-2----------
---------------------------------
---------------------------------
E, then F#

Chorus
B F# E E-F#
G#m F# E E

Instrumental

----------------------------
-----4---4h5----------------
-4-4---4----------3---3h4---
--------------4-4---4-------
----------------------------
----------------------------
B F#

---------------------------------
----------------------2s4s2s0----
-----3---3h4------3--------------
-2-2---2------2-2---2------------
---------------------------------
---------------------------------
E E

5 comments:

Chris said...

Thanks Kenny!
What settings should I use on my amp for this song? Like, bass treble, mid and gain.

Bob said...

Dude..Can someone send this song to bunnybunnywoah@yahoo.com?
Don't make fun of the email btw..

Alex said...

the only suggestion i have is that i noticed in the planetshakers vid for this song when they play the intro riff an octave higher, they actually play octave chords.

mike said...

This song is pretty cool musically, yah the melody is not great, but some parts of the melody sounds kool like the chorus, yeah its hard to follow for lead vocals. The bass solo and drums sound cool too.

Mairon said...

Thx soo much!
But... what is effect of pedal?
Can u post it? please !
God bless u!