One Thing

By Jerome

Here's a touching song that I really love, and has a nice message. Use some delay, and don't use any distortion at the instrumental or overdrive. Use in the pre-verse and pre-chorus instead (the second one).



Pre-Chorus:
------------------------
-11--10--11--10---------
---12--12--12---12-10-9-
------------------------
------------------------
------------------------

------------------------
-11--10--11--10---------
---12--12--12--12-------
------------------------
------------------------
------------------------

Chorus:
-------------------
---6----6---6------
--5----5---5----5---
-3--3-5---3--5-5----
-------------------
-------------------

Verse II:
-6--------------5-----------5-
-5--5---6--6--6----5-----6----
-7-----5-5----5---5---5-5-----
---5--7-----------------------
------------------------------
------------------------------

Pre Chorus:
-------------------------
-11-11p10----------------
-------------10-12-12-10-
-------------------------
-------------------------
-------------------------

-------------
-------------
-------------
-9--9--9--9--
--10-10-10---
-------------


Instrumental:
-13-13--13----13-13-13---13---
---------13---13-----------13-
------------------------------
------------------------------
------------------------------
------------------------------

-12--12--12---12---
---13--13--13------
-------------------
-------------------
-------------------
-------------------

rp.several times each note refer to the vid
-13-15-13-|--13-15-17----
----------|--------------
----------|--------------
----------|--------------
----------|--------------
----------|--------------

-17-------15---15-17----
----15-17---13----------
------------------------
------------------------
------------------------
------------------------

4 comments:

Anonymous said...

I think you tuning is somthing wrong

..check out please...

Anonymous said...

wad key is this song played in?

Anonymous said...

so if the original is in key of D and capo 3...

my question is, can i play this tab in the key of E without capo?...

longge said...

The replica bags insists on girlish fashion withour which you may find it much harder to shape your with other unfamiliar styles. The supple calfskin gives the pink a top touch and infuses more vividness into the monogram pattern. Sometimes you have to marvel at the magic of colour to reform some cliche.