Saviour King (Hillsong) Part 1

By Jerome

Use quarter note dotted delay and some overdrive. This vid is part 1 so just hang on for part 2!



Intro:
----9-9--------------------
-------9-----7-9-9-9-9-9---
-9-9-9----9-9------------9-
---------9-9------9-9-9-9--
---------------------------
---------------------------

Chorus
: (1:20)
-------------9-9-9-9-7-7-9-
--9-9-9---9----------------
-9-9-9--11--9-9-9-9---9-9--
-------9-------------------
---------------------------
---------------------------

-----11-11-11-----------------
------------------------------
-9s11--11-11-11--9-9-9-9-7-7-9
------------------9-9-9---9-9-
------------------------------
------------------------------

Verse
: (2:10)
-----------7------4-------
7-9---------------5----10-
-----9-9-9--9-------------
------9-9------4h6--9s11--
--------------------------
--------------------------

-------------------------
--10----9---9----10---7--
---------------------9---
-11-10s9---9-9s11--------
-------------------------
-------------------------

Chorus:
-------------------------
--9-9-9-9-9-7-9-9-9-9-9--
-9-9-9-9-9-9-9-9-9-9-9---
-------------------------
-------------------------
-------------------------

--9-9-9-9-9-7-9-9-9-9-9--
-------------------------
-9-9-9-9-9-9-9-9-9-9-9---
-------------------------
-------------------------
-------------------------

--11-11-11-11-11--9-11-11-11-11
-------------------------------
-11-11-11-11-11-11-11-11-11-11-
-------------------------------
-------------------------------
-------------------------------

-------------------------
--9-9-9-9-9-7-9-9-9-9-9--
-9-9-9-9-9-9-9-9-9-9-9---
-------------------------
-------------------------
-------------------------

-------------------------
--9-9-9-9-9-7-9-9-9-9-9--
-9-9-9-9-9-9-9-9-9-9-9---
-------------------------
-------------------------
-------------------------

--9-9-9-9-9-7-7-7-9-9-9--
-------------------------
-9-9-9-9-9-9-9-9-9-9-9---
-------------------------
-------------------------
-------------------------

--11-11-11-11-11-|-12------
-----------------|---------
-11-11-11-11-11--|11-(17x)-
-----------------|---------
-----------------|---------
-----------------|---------

-------------------
-9-9-9-9-9-9-9-7---
--9-9-9-9-9-9-9----
-------------------
-------------------
-------------------

-9-9-9--7-9-9-9-9--------
-------------------------
--9-9-9----9-9-9-9-------
-------------------------
-------------------------
-------------------------

-11-11-11-11-12-12-12-12--
--------------------------
--11-11-11-11-11-11-11-11-
--------------------------
--------------------------
--------------------------

Strum
-----------
-----------
-----------
-11-13--4--
-----------
-9--11--3--
-----------

2 comments:

Anonymous said...

Hey Kenny - Fantastic Site!!! God Bless you guys....just can't see how your tabs and video line up around the verse/prechorus on this one?

Patrick Lao said...

When you listen close, do you Have any idea how many guitars and how many delays, what kind of delays, tremolo, modulation, etc.? I know the divisions are probably dotted eighth into or parallel with quarter, maybe triplet, but I'm more curious about the eerie-slightly overdriven or warbled low-mids repeating multiple times, and how it is mixed with the clean high with only one repeat. How is that possible on one guitar or is it?