In a Valley by the Sea Preview

By Jerome

I know many of you are excited about the coming album... here're the tabs for parts of four songs in the album. Hope you like it!



You Deserve

I used 4 dotted delay here...
----------------
-13--14--11-----
----------------
----------------
----------------
----------------

Perfect Love

part one: quarter delay note
--------2--------
-0-0-0-0-0-0-----
----------3------
----------------
----------------
----------------
repeat several times

Followed by:
----------------
----------------
-11--9--8--6--9-
----------------
----------------
----------------

----------------
----------------
-8--4-----------
----------------
----------------
----------------
repeat each note several times


Second Chance

Use some delay here and little bit of dist.

---------------------
-12--------11--------
---11-(4x)---11-(4x)-
---------------------
---------------------
---------------------

---------------------
-12--------7---------
---11-(4x)---9-(4x)--
---------------------
---------------------
---------------------

---------------------
-12--------11--------
---11-(4x)---11-(4x)-
---------------------
---------------------
---------------------

Strum

---------------------
-12----------7-------
---11-(4x)---9-(4x)--
---------------------
---------------------
-------------------

Love Enough

F G

then stum
C Am F G
----------------
-13--10--6--8---
-12--9---5--7---
----------------
----------------
----------------

You Reign

Chords D A E (Chorus)

3 comments:

Anonymous said...

they were giving away the cd's at the conference in orlando florida, even though they arent released in united states yet, they played some of the songs too.

Thomas Sinfield said...

I just got the cd yesterday. and absolutely love the Perfect love song....its amazing!

longge said...

For those who wish to acquaintance the adorableness and affluence of Replica Cartier but don't wish to absorb abundant money, they should go for added ideal options. Buying buzz affluence watches are realistic, as continued as they attending accomplished and plan in acceptable condition. Chase the accomplish categorical aloft and you will succeed.