Love Enough

By Jerome

My favourite song on the album, here are the tabs and chords!




Intro:
-------------------------------
-------0-0-0-5-5-5-5-5-5-5-5-5-
-5-5-5-5-5-5-5-5-5-5-5-5-5-5-5- (3X)
-------------------------------
-------------------------------
-------------------------------

----------------------------
-------0-0-0-5-5-5-5-5-5-5-5-5-
-5-5-5-5-5-5-5-5-5-5-5-7-7-7-7-
-------------------------------
-------------------------------
-------------------------------

-------------------------------
-------0-0-0-5-5-5-5-5-5-5-5-5-
-5-5-5-5-5-5-5-5-5-5-5-5-5-5-5-
-------------------------------
-------------------------------
-------------------------------

-------------------------------
-------0-0-0-5-5-5-5-5-5-5-5-5-
-5-5-5-5-5-5-5-5-5-5-5-7-7-7-7-
-------------------------------
-------------------------------
-------------------------------
C

(Am F C G)X2


Verse: rhythm guitar
---------------------------
---------------------------
---------------------------
---------------------------
-------3------------3------
-5--1-----3---5--1-----3---


Am F C G

Pre-chorus

---------------------------
---------------------------
---------------------------
---------------------------
---------------------------
-5--1--5--3--1--5--3-------
repeat each note several times refer to the video... (same at the
verse part)

Chorus: Strum
--------------------
-13--10--6--8--6--8-
-12--9---5--7--5--7-
--------------------
--------------------
--------------------

C Am F G


2nd Pre-chorus: Strum
------------------------------
-"13--10--13--12--10--13"--12-
--14--10--14--12--10--14--12--
------------------------------
------------------------------
------------------------------
Strum the chord inside the "" 4x and strum the last chord continuesly... refer to the video.


Bridge: strum
-----------------------------
-6--(4x)--5--(4x)------------
-9--------5------------------
-------------------5---------
-------------------5-(G power chord)
-------------------3---------

-----------------------------
-----------------------------
-10-10-10-9-9-9--------------
---------------10-10-10-10---
-----------------------------
-----------------------------

-----------------------------
-----------------------------
-10-10-10-9-9-9--------------
---------------10------------
-----------------------------
-----------------------------

------------------------------
-6--(4x)--5--(4x)-------------
-9--------5-------------------
-------------------5----------
-------------------5-(G power chord)
-------------------3----------

-----------------------------
-----------------------------
-10-10-10-9-9-9--------------
---------------10-10-10------
-----------------------------
-----------------------------

Followed by:
F G
and then chorus

Bridge Chords:

F Am G Dm

18 comments:

Anonymous said...

Capo on 1st might work better for the intro.

Great Job

Anonymous said...

Intro:
-------------------------------
-1-1-1-0-0-0-5-5-5-5-5-5-5-5-5-
-5-5-5-5-5-5-5-5-5-5-5-5-5-5-5-
-------------------------------
-------------------------------
-------------------------------

-------------------------------
-1-1-1-0-0-0-5-5-5-5-5-7-7-7-7-
-5-5-5-5-5-5-5-5-5-5-5-5-5-5-5-
-------------------------------
-------------------------------
-------------------------------
?

Si-Xian said...

for the intro, this sounded more correct

-------------------------------
-------0-0-0-5-5-5-5-5-5-5-5-5-
-5-5-5-4-4-4-5-5-5-5-5-5-5-5-5- (3X)
-------------------------------
-------------------------------
-------------------------------

----------------------------
-------0-0-0-5-5-5-5-5-3-3-3-3-
-5-5-5-4-4-4-5-5-5-5-5-4-4-4-4-
-------------------------------
-------------------------------
-------------------------------

Guitar_man32@yahoo.it said...

3 and 4 are not match to the song... My Intro is 100% accurate guys... Listen to the mp3 and play it and you'll find it correct

by Jerome


Intro:
-------------------------------
-------0-0-0-5-5-5-5-5-5-5-5-5-
-5-5-5-5-5-5-5-5-5-5-5-5-5-5-5- (3X)
-------------------------------
-------------------------------
-------------------------------

----------------------------
-------0-0-0-5-5-5-5-5-7-7-7-7-
-5-5-5-5-5-5-5-5-5-5-5-5-5-5-5-
-------------------------------
-------------------------------
-------------------------------

-------------------------------
-------0-0-0-5-5-5-5-5-5-5-5-5-
-5-5-5-5-5-5-5-5-5-5-5-5-5-5-5-
-------------------------------
-------------------------------
-------------------------------

-------------------------------
-------0-0-0-5-5-5-5-5-7-7-7-7-
-5-5-5-5-5-5-5-5-5-5-5-5-5-5-5-
-------------------------------
-------------------------------
-------------------------------

Si-Xian said...

hmmm... it sounds really clashy in some parts... maybe this is meant to be played by 2 guitars instead of 1...

Anonymous said...

I think you've got the 7-5 around the wrong way that's why it sounds clashy.
Try this:
-------------------------------
-------0-0-0-5-5-5-5-5-5-5-5-5-
-5-5-5-5-5-5-5-5-5-5-5-7-7-7-7-
-------------------------------
-------------------------------
-------------------------------

Guitar_man32@yahoo.it said...

oops I type it wrong...

Sorry guys I'm just Human... hehe

SiuKeong said...

nice job jerome. it's the nearest i can get as well. it's awesome. but i have to give it to 'anonymous'. but i play it like this.

-------------------------------
-------0-0-0-5-5-5-5-5-3-3-3-3-
-5-5-5-5-5-5-5-5-5-5-5-5-5-5-5-
-------------------------------
-------------------------------
-------------------------------

ps: there's no such thing a perfect tabbing done. it all depends on how you play it.

SiuKeong said...

oh yea..jerome..3-4 does stack on the set of chords. it stacks on G. so if that guy plays it that way..it wont clash. heh.

peace out. xD

Guitar_man32@yahoo.it said...

The Intro tab will be correct soon guys... I type it wrong I apologize and about 3 and 5

-------------------------------
-------0-0-0-5-5-5-5-5-"3-3-3-3"-
-5-5-5-5-5-5-5-5-5-5-5-"5-5-5-5"-
-------------------------------
-------------------------------
-------------------------------

Im not pretty convince it doesn't match with the song.... I play it

-------------------------------
-------0-0-0-5-5-5-5-5-3-3-3-3-
-5-5-5-5-5-5-5-5-5-5-5-5-5-5-5-
-------------------------------
-------------------------------
-------------------------------

or

-----------------------0-0-0-0-
-------0-0-0-5-5-5-5-5-3-3-3-3-
-5-5-5-5-5-5-5-5-5-5-5---------
-------------------------------
-------------------------------
-------------------------------

Rubin said...

Ummm...Which into tab is right?

Zach said...

hey jerome, can you post the chords for each part of the song?

Anonymous said...

hey kenny or jerome or someone. the verse in the love enough on the iheart revolution cd is a little different from this one. you think you could figure out the tabs to it?

alby said...

anyone have the tab for the 2nd guitar in the intro? thanks.

nickalmand said...

try doing it capoed on 1 and leaving the B-string open. then play 4-3-8, 4-3-8-6 on the G-string. This would make your main chords B, G#m, E, and F# (relative to capo).

Anonymous said...

guys here's the correct tab for the intro -- this is 100%.

-------------------------------------------
-------------------------------------------
-------------------------------------------
--10-10-10-9-9-9-9-14-14-14-14-14-14-14-14-
-------------------------------------------


-------------------------------------------
-------------------------------------------
-------------------------------------------
---10-10-10-9-9-9-9-14-14-14-14-12-12-12-12
-------------------------------------------
-------------------------------------------







than just repeat over and over.

Anonymous said...

oops. the 1st E string didnt show. so just pretend theres on in the first tab haha. here it is again.

-------------------------------------------
-------------------------------------------
-------------------------------------------
--10-10-10-9-9-9-9-14-14-14-14-14-14-14-14-
-------------------------------------------
-------------------------------------------




-------------------------------------------
-------------------------------------------
-------------------------------------------
---10-10-10-9-9-9-9-14-14-14-14-12-12-12-12
-------------------------------------------
-------------------------------------------

johnnxma said...

does anyone have the tabs for the second guitar part in the intro