Second Chance

By Jerome

Second Chance is a very touching song. Use some delay and a clean guitar effect....



Tabs

Verse: (strum)
------0---4---7---7---6-------
--7---7---5---5---7---7-------
--8---9---6---6---6---6-------
--9---9-----------------------
------------------------------
------------------------------

Chorus:
------------------------------
--12--(4x)--11--(4x)--12--(4x)
-11--------11--------11-------
------------------------------
------------------------------
------------------------------

-------------
-------------
--11---(4x)--
---14--------
-------------
-------------

Reapeat this part refer to the video!

Instrumental: Actually this part is piano driven but I transposed to the guitar.

----14-----
-14----12--
-----------
-----------
-----------
-----------

CHORDS:

I Verse :

B E C#m F#
B E C#m F#

Chorus:

B F# G#m E
B F# G#m E

II Verse :

B E C#m F#

Bridge:
(Just use power chords)

B F#/Bb G#m E
B F#/Bb G#m E

F#/Bb power chord
"----------"
----------
----4-----
----4-----
----6-----

3 comments:

aud1enceof0ne said...

can you do the bridge part with the power chords on the lower strings?

David said...

im hearing :
-----------
-9--12--11-
-9--11--11-
-9--9---9--
-----------
-----------

try that out aud1enceof0ne

Lildigipoke2 said...

Could you transpose this to the key of G...like all the tabs? Our praise team is doing this song in G, and i have no idea how to bring it down to the key of G...if you could please change it for us, that would be so great.