For All You've Done (Instrumental Variation)

Hey all, haven't played the guitar for about 10 days, and feeling a little rusty already. Here's a variation on the For All You've Done instrumental I did, the change is not just the wah, but the fast stuff in the 2nd half - I've used the open E string alot.



Tabs
1st part
----------------------------
-9-9-10-10------------------
----------------------------
----------------------------
----------------------------
----------------------------

--------------------------------------------
-9-7b9-------9-10p9-------------------------
-----------9--------9-------------s8-8-s4-4-
---------------------9s7s6---6--------------
---------------------------7---7------------
--------------------------------------------


Fast Part
-0-0-2-0-4-0-5-0-4-0-2-0-0-0-2-0-
---------------------------------
--------------------------------- (x2)
---------------------------------
---------------------------------
---------------------------------

-4-0-5-0-7-0-9-0-7-0-5-0-4-0-5-
-------------------------------
-------------------------------
------------------------------- (x2)
-------------------------------
-------------------------------

-16-0-0-0-16-0-14-0-0-0-14-0-12-0-0-0-
--------------------------------------
--------------------------------------
--------------------------------------
--------------------------------------
--------------------------------------

-12-0
-0-0-12-0-11-0-0-0-11-0-7-0-0-0-
-------------------------------------
-------------------------------------
-------------------------------------
-------------------------------------
-------------------------------------

--7-----
--------
--------
--------
--------
--------

2 comments:

pious said...

eow!!,

Nice one!.. wow...your amazinggg i thank God for blessing you so much with this talent. thanks kenny..

Basketball uniform said...

Rock n' Roll Jesus Christ