Indescribable (bass)

By Bass Levite

Timing is 6/8 instead of the more common 4/4.



Verse:

-----------------------------
-----------------------------
-6---6-----------3-----------
---6---3-5-6-3-6---6-4-4-6-4-
-----------------------------

---------------------
---------------------
-----------3-----6-8-
-3-5-6-3-6---6-4-----
---------------------


Chorus:

---------------------------------
---------------------------------
-----6---6---6-5-----5-6-6-------
-6-1---6---6-----6-3-------1-3-5-
---------------------------------

-------------------------
-------------------------
-----6---6---6-5-----5-6-
-6-1---6---6-----6-3-----
-------------------------


Bridge:



--------------------------
--------------------------
-3(9x)--------------4(3x)-
-------6(3x)-4(12x)-------
--------------------------

--------------------------
--------------------------
-4-4-4h6-6h8-6-4-3-2(12x)-
--------------------------
--------------------------

Short break without music, and then...

----------------------------------------
----------------------------------------
---------------5(6x)-6(6x)-6-8-8h10-8---
---1-3-5-3(6x)------------------------6-
-4--------------------------------------


There's also a part where the band does a short riff later (not shown in video).

-----------
-----------
-6-5---8---
-----8---6-
-----------

2 comments:

Anonymous said...

What's the key for this tabs? Is this D#?

Thanks!

Adrian said...

I can't seem to view this video anymore. It says "This is a private video. If you have been sent this video, please make sure you accept the sender's friend request.

Can anyone help?