Touching Heaven Changing Earth (bass)

By Bass Levite



Intro:

-----------------
-----------------
---3-3---5-0-5-0- 2x
-3-----0---------
-----------------


Verse:

-----------------------------
-----------------------------
---0-2-3-5-2-5---0-2-3-5-2-5-
-3-------------3-------------
-----------------------------

-------------------------
-------------------------
-7-3-5-0-5-0-7-3-5-0-5-0-
-------------------------
-------------------------

-----------------------------
-----------------------------
---0-2-3-5-2-5---0-2-3-5-2-5-
-3-------------3-------------
-----------------------------

-------------------------
-------------------------
-7-3-5-0-5-0-7-5-5-5-5-2-
-------------------------
-------------------------


Chorus:

---------------------
---------------------
-3-3---2-5-5-7-5-7-5-
-----3---------------
---------------------

---------------------
---------------------
-3-3---2-5-5-7-5-7-5-
-----3---------------
---------------------

-------------------
-------------------
-3-2-2-5-5-7-5-7-5-
-------------------
-------------------


Bridge:



Chords are simply

| Am | G/B | C | G D |

The third time, when it builds up, these are the riffs:

---------------------------------
---------------------------------
-----------------2-2-2-2-2-2---2-
-5-5-5-5-5-5-0-5-------------3---
---------------------------------

-------------------------------------
-------------------------------------
-3-3-3-3-3-3-5-5-3-------------------
-------------------5---------2-2-3-3-
---------------------3-3-5-5---------

---------------------------------
---------------------------------
-----------------2-2-2-2-2-2---2-
-5-5-5-5-5-5-0-5-------------3---
---------------------------------

-------------------------------------
---------------4-7-4-----------------
-3-3-3-3-3-3-5-------5-------5-5-----
-----------------------5-7-7-----7-7-
-------------------------------------

2 comments:

wangzi said...

Until actual afresh cheap chanel watches were a part of the a lot of admired items boilerplate humans carried. In the 20th Century if a lot of men didn't abrasion adornment an big-ticket watch was advised a cachet attribute that a man could wear. Compared to the apery or affected ones that are affected from the original, they are almost better.

St.peters church said...

hello friend kindly give your youtube profile link to this mail id''josephsam2007@gmail.com''i cant able to view your videos . . . god bless u. . . .