The Lord is here

By Jerome

Here's The Lord is Here by Marco Barrientos...



Instrumental:
-------------10-----10--10----
-12(8x) 10-10--10-10--10------
------------------------------
------------------------------
------------------------------
------------------------------

--7-7-7---8-8-8-----12--12----
-7-7-7-7s8-8-8--8s13--13------
------------------------------
------------------------------
------------------------------
------------------------------

-------12--12--12---12--12---12-
-13s12---12--12---12--12---12---
--------------------------------
--------------------------------
--------------------------------
--------------------------------

------------12---------------
-10-10-10-10---8-8-8-8-8-8---
-----------------------------
-----------------------------
-----------------------------
-----------------------------

---------10-----10--10-------
----10-10--10-10--10---------
-----------------------------
-----------------------------
-----------------------------
-----------------------------

--7-7-7---8-8-8-----12--12----
-7-7-7-7s8-8-8--8s13--13------
------------------------------
------------------------------
------------------------------
------------------------------

-------12--12--12---12--12---12--
-13s12---12--12---12--12---12----
---------------------------------
---------------------------------
---------------------------------
---------------------------------


---12--12---------------------
-10--10-----------------------
------------------------------
------------------------------
------------------------------
------------------------------

8 comments:

Anonymous said...

wow jerome. wouldn't have been able to figure that one out without you. that was such a hard song. ROFL

Anonymous said...

what are the chords to this song?

Anonymous said...

LOL AT FIRST COMMENT

FrAd said...

hi keny! ! !
please, more songs of marco barrientos.
greetings from mexico

Seúl said...

Hola Frad, mi nombre es Seúl y te invito a que visites y colabores en nuestro blog adoracionmusical.blogspot.com que es muy parecido a este solo que en Español. Te esperamos. Dios te bendiga.

Michael said...

I know this song is older. But is there anyway I could get the chords to it...Thanks

Praise the Lord said...

yo should make a spanish guitar praise you know, and make marco barrientos the hillsong of it xD

eligar said...

hey there is a song from marco barrientos its super good and powerfull and i wanna get the chords o tabs for that song and its hard for me cuz i dont know that much guitar and i want some help... the song call "es tu gloria"... can u help me plissss... :) God Bless U bro..