Gotta Give Him the Glory (Bass)

By Bass Levite

This song is the longest praise song I've ever heard! Also from Christian City Church Oxford Falls, it's over 12 minutes of praising God! This song is very unique in that there's no verse and bridge, and has three different choruses instead. The tempo and key changes as well throughout. About 3/4 of the way through the song, the musicians broke out into solos, drums, then bass, then lead, vocals and then piano. The bass solo slapping is too hard for me, so I have not included it in this video. Maybe one day when I can slap properly, I'll do a video on it.







Part 1: "Gotta give him, gotta give him..."

The open string E should be slapped, and the 12th fret D note should be popped, but I didn't.

-----------------------------
-----------------------------
-----------------------------
-10-10-12-12-10-10-12-12-0-0-

-------------------------
-------------------------
-------------------------
-10-10-12-12-10-10-12-12-

-----------------------------------
-----------------------------------
----10------------12-10------------
-12----12-0-0-0-0-------12-0-0-0-0-

-------------------------------
-------------------------12-12-
-------------------------------
-10-10-12-12-10-10-12-12-------

-------------------------
-------------------------
-------------------------
-10-10-12-12-10-10-12-12-

-----------------------------------------
---------------------------------------9-
----10------------12-10----12-12-10-12---
-12----12-0-0-0-0-------12---------------


Part 2: "Hallelujah, the earth is rejoicing..."

Based on arpeggios.

------------------------
------------------------
-----11-7-------6-6h9---
-9-9------9-7-7-------7-

-----------------------
-----------------------
-----4-7-------4-7-----
-5-5-----5-5-5-----5-7-

------------------------
------------------------
-----11-7-------6-6h9---
-9-9------9-7-7-------7-

-----------------------
-----------7-6---------
-----4-7-------9-9-7---
-5-5-----5-----------7-

------------------------
------------------------
-----11-7-------6-6h9---
-9-9------9-7-7-------7-

-----------------------
-----------------------
-----4-7-------4-7-----
-5-5-----5-5-5-----5-4-

-----------------------
-------2---4-2---------
---------4-----4-------
-2-2-2-----------5-2-2-

---------------------------
---------9h11r9---9h11r9-9-
-------9--------9----------
-7-7-7---------------------


Part 3: "And we dance..."

If you don't have a 5 string bass, you can play an open E for the low D instead... it's just a one touch variation. The first part is the same throughout the song, but there are variations in the second half of the riff.


First 2 bars of riff

---------------------------
---------------------------
---------------------------
-3-3---3-3-3-5-0-5-0-5-5-5-
-----3---------------------

Last 2 bars of riff variation 1

---------------------
---------------------
--------------------- (2x)
-12-10-10-12-10-12-0-

Last 2 bars of riff variation 2

-------------------------
-------------------------
------------------------- (2x)
-10-10-12-12-10-10-12-12-

Last 2 bars of riff variation 3

-------------------------------
-------------------------12-12-
-------------------------------
-10-10-12-12-10-10-12-12-------

-------------------------
-------------------------
-------------------------
-10-10-12-12-10-10-12-12-

Last 2 bars of riff variation 3 (ending)

-------------------------------
---------------9h11r9---9h11r9-
-------------9--------9--------
-7-7-7-7-7-7-------------------


Part 4: Instrumental

Play in sync with the brass band here.

-------------------------------------
-------------------------------------
-------------------------------------
-12-10-12-10-10-10-12-10-10-10-10-12-

----------------------------------
----------------------------------
-10h12-10-------------------------
----------12-10-10-10-12-12-12-12-

----------------------------------------
-14-12----------------------------12-14-
-------14-12-10----------10-12-14-------
----------------12-10-12----------------

Play in sync with the lead guitar here.

------------------------------
------------------------------
------------------------------ (3x)
-10-10-12-10-10-12-10-10-12-0-

A short slap riff here, utilising open strings. (!) indicates muted notes.

-------------------------------------------
---0-0h2-----0h2-------2!-2!-2!-2!---------
---------0h2-----0h2---------------0-0-----
-0-------------------0-----------------3-0-

1 comment:

longge said...

The aggregation went on authoritative abounding baroque timepieces that were able-bodied accustomed all over the apple for their baroque architecture and qualities, and the in faddy Tag Heuer Aquaracer Watches is a appearance of its success. In the afterward years, Heuer bogus a alternation of acclaimed watches with convalescent adjustment and innovation.