Our God Reigns

Here's Our God Reigns by Christian City Church.. the intro riff is pretty simple, so I've played it all over the fretboard. Notice how the tone becomes thinner as I move up to the thinner strings.



No tabs! It'd be a good exercise to figure the fingerings on your own, you can check with me by leaving the tabs in the comments.

4 comments:

Anonymous said...

To Kenny,

I was listen to your solo and found it interesting. I was trying to figure it out. I'm close but I'm not exact. I got the feeling either I'm missing a note or its just misplace. I hope you post the tabs to see how close I am. thanks for the site. very informative and helpfull.

Anonymous said...

I'm guessing that the tab sounds the same, but it's played in different areas. Brb.

Daniel Lee said...

Tabs
e---------------------------------------
B---------------------------------------
G-------------11------------11----------
D---12--12—14---14-12—-12-14—14---------
A-14--14-------------14---------12-12---
E---------------------------------------

e---------------------------9-9--------
B-------------7----------7-------------
G-----7---7-9—-9-7---7-9--9------------
D-7-9--9-----------9-------------------
A--------------------------------------
E--------------------------------------

e--------------------------------------
B---------5-7-5-------5-7-5-----------
G-4-7-4-7-------7-4-7-----------------
D---------------------------7-7-------
A-------------------------------------
E-------------------------------------

e---------0-2-0-------0-2-0-9-9-------
B-0-3-0-3-------3-0-3-----------------
G-------------------------------------
D-------------------------------------
A-------------------------------------
E-------------------------------------

Dannay!! said...

I started a blogger.