Anthem

By James

Here are the tabs for the intro of Youth Alive's Anthem. This also goes with the electric guitar.




The synth goes first


G|--------------------------------------
D|--------------------------------------
A|---3/5---7h8-------3/5---7h8\3---3-4--0
E|--------------------------------------

G
|---------------------------------------
D|---------------------------------------
A|--5-5-5-5-5-5-5-5-5-5-5-5-5-5-5-5-5-5-5
E|---------------------------------------

G|----------------------------
D|----------------------------
A|-5-5-5-7-7-7-8-8-8-7-8-7-5-5
E|----------------------------

G|----------------------------
D|----------------------------
A|-5-5-5-7-7-7-8-8-8-7-8-7-5-5
E|----------------------------

G|----------------------------
D|----------------------------
A|-5-5-10-10-10-8-8-7-8-5-----
E|----------------------------

G|----------------------------
D|----------------------------
A|-5-5-10-10-10-8-8-7-8-5-----
E|----------------------------

1 comment:

ErnieBall said...

THX!!
Good tabs. God Bless U!!!