Forever

Here's Forever by Planetshakers, the last track in their Saviour of the World album. The prechorus part is admittedly somewhat messy.. I did play some wrong notes!




Tabs
Just before the 2nd verse
-------------------------------------
-------------------------------------
-10-9--12-10-9--5---12-10-9-7-9-5-7--
-------------------------------------
-8--7--10-8--7--3---10-8--7-5-7-3-5--
-------------------------------------

Intro & Verse

Mute the G string
-------------------------------------
-5-----3-----5----5-----3-----5------
---5-5---5-5---5----5-5---5-5---5----
-------------------------------------
-------------------------------------
-------------------------------------

-------------------------------------
-6-----5-----6----6-----5------3-----
---5-5---5-5---5----5-5---5-5----5---
-------------------------------------
-------------------------------------
-------------------------------------

-------------------------------------
-5-----3-----5----5-----3-----5------
---5-5---5-5---5----5-5---5-5---5----
-------------------------------------
-------------------------------------
-------------------------------------

-------3-------------3---------------
-3---3---3-----3---3----3------------
-------------5-----------------------
---5-------------5-------------------
-------------------------------------
-------------------------------------

Pre-Chorus
----------------------------------------------
-------0-----------0-----------0----------0---
---5-----5-----5-----5-----5-----5-----5----5-
-7---7-------5---5-------3---3-------3---3----
----------------------------------------------
----------------------------------------------

2 comments:

Anonymous said...

Good stuff. I really like there stuff. Do you know where I can buy their albums?

Antonio said...

Thank you bro