God of Wonders

By Chris

Here's God of Wonders by Mac Powell and Cliff and Danielle Young.



-----10-------10-------------10-------11-10-
---11--11--11--11---11---11--11--11---------
-10------10-------10---10-------10----------
--------------------------------------------
--------------------------------------------
--------------------------------------------

Instrumental
------------------------------------------
-10h11-11-11-10---------------------------
-----------------10-12-10-10h12-12-12-10--
------------------------------------------
------------------------------------------
------------------------------------------

-----------------------------------------------
-------------------------------------------3---
---------------------------------------------3-
-10-10s12-12h13-13-13-12-8-10s5-5-3------------
-----------------------------------------------
-----------------------------------------------

5 comments:

temo said...

I think you may have needed some distortion, and a little less repeats on your delay! But it was a great video!!

Anonymous said...

hi wats the chords on that song???? TY and Godbless...

edwinsagun said...

no need for distortion.... it was perfect... it actually needs to have a bit more acoustic feel, but he had it right with the chorus feel.

edwinsagun said...

but ye.... too much delay lol

123 said...

This Louis Vuitton bags can be purchased at Louis Vuitton’s bazaar for $945. The bag maybe cute, but it’s not account that much. If I’m paying that abundant for a bag I would like to be able to backpack absolutely a bit in it. It’s one of those little bags, that is so tiny but yet still looks amazing.