What the World Will Never Take (Bass)

By Temo Morales

Here are basics for the songs... I added some variations as well.



Verse 1
G---------------------------
D---------------------------
A---------------5-5---5-5---
E 5-5----5-5----------------

Verse 2
G---------------------------------
D---------------------------------
A----5s12-----------5-5---5-5-----
E 5-5------5-5--------------------

Pre-Chorus
G---------------------------------
D---------------------------------
A-5-5-------------2-2----5-5------
E-------------2-2-----------------

G---------------------------------
D---------------------------------
A---------------------------------
E--5-5-5---7-7-7------------------

Chorus
G-------------------------------
D-------------------------------
A---------5-4-------------------
E-5-5-5-5-----5-5-5-5-----------

G-------------------------------
D----------------------7--------
A-5-5--9-9--------5---5---------
E-------------7-7----------5----

G-------------------------------
D-------------------------------
A---------5-4-------------------
E-5-5-5-5-----5-5-5-5-----------

G-------------------------------
D----------------------7--------
A-9-9-9-9---------5---5---------
E-------------7-7----------5----

Bridge
G---------------------------
D-----------------------10--
A-9-9-9-9-11--8-8-8---8-----
E---------------------------

G---------------------------
D---------------------------
A--------------------7s14 (hold 2 mesures[8 beats])
E-5-5-5-5--7-7-7-7----------

1 comment:

A.L. said...

Hey, don't you mean the bassics for the song? Sorry, that's a Rick thing. Thanks for tabbing songs I need!