Desperate People (Bass)

By Temo Morales



Intro:
G ------------------------|
D ------------------------|
A -8-3-3s8---7-7s12-------|
E ------------5-----------| X3

then play C and G to go to the verse

Verse:
Almost the same as the intro

G -------------------|
D -------------------|
A --3----------7-----|
E -1----1-1--5---5-5-| X3

then C and G

PreChorus:
D A F C
D A F

Chorus:
C G A F
C G D F

Instrumental:

A G/B
G ----------------------------
D ----------------------------
A ----7--3s8s7----------------
E -5---5----------7-5-7-3-7---

F C G/B
G--------------------------------------
D--------------------------------------
A -------3s8s7--3-3s7s5--2-2s5s3-------
E-1-0-1--------------------------------

X3 and the last part of if before the Chorus is:

G ---------------------------------------
D ---------------------------------------
A -----------------------------
E 5-5-0-3-5-5--7-7-3-7-3--

G ---------------------------------------------
D ---------------------------------------------
A ----------3-3s8s7-------------3----------
E -1-1-0-1------------1-1-1-3-5--1-1-1-1-

Then the Chorus

Ignore my errors, I'm feeling kinda sick, but as long as you get the idea!

3 comments:

bass_levite said...

Nice work! I never thought how involved it was.

Temo said...

Yeah I know, I didn't know the bass did all that until i kept listening to it!

longge said...

The acclaimed Swiss cast Tag Heuer Aquaracer was founded in 1860 by Edouard Heuer, a 20 year old adolescent man who was addicted of attention time-keeping. In 1969, he afraid the accomplished watchmaking industry by actualization a alarm called "Micrograph" as authentic as 1/100 th of a second, again followed by a added authentic "Semicrosplit", which alcove 1/50 th of a second.