One Desire

By Jerome

Here's one of my favorite song by Hillsong - "One Desire".



Verse:(Palm muting except e|-7-)
--------------------------------
-7-9-10-9-10-9----7-9-10-9-10-9-
----------------9---------------
---------------9----------------
--------------------------------
--------------------------------

---7----------------------------
-10-9-10-9-10---7-9-10-9-10-9---
-------------9------------------
--------------9-----------------
--------------------------------
--------------------------------

--------------------------------
-7-9-10-9-10-9--7-9-10-9-10-9-10
--------------------------------
--------------------------------
--------------------------------
--------------------------------

-7---------------
--7-9-10-9-------
----------------
----------------
----------------
----------------

---7------------7--------
-10-7-9-10-9-10---7-9----
-------------------------
-------------------------
-------------------------
-------------------------

Pre-Chorus:
----7----7--------
-------------10---
-8---8--9----9----
-9-----------7----
------------------
------------------

---7----7------------
---------------------
-7--8--9--10-9--10---
-8--------9---9---9--
-9-------------9---9-
---------------------

Chorus: (I didn't put in the vid coz its easy to play)
-------------7------
-7-9-10-9-10---------
---------------------
---------------------
---------------------
---------------------
repeat throughout the chorus

Pre-Verse & Verse II: palm mutes
-------------7------------------
-7-9-10-9-10---9-9-10-9-10------
---------------------------9----
--------------------------------
--------------------------------
--------------------------------

--------------------------7-----
-7-9-10-9-10---7-9-10-9-10------
------------9-------------------
-------------9------------------
--------------------------------
--------------------------------

--------------------------------
-7-9-10-9-10---7-9-10-9-10------
------------9-------------9-----
-------------9-------------9----
--------------------------------
--------------------------------

------------7-------------------
-7-9-10-9-10-(2x)-7-9-10-9-10---
-----------------------------9--
--------------------------------
--------------------------------
--------------------------------

--------------------------7-----
-7-9-10-9-10---7-9-10-9-10------
------------9------ ------------
-------------9------------------
--------------------------------
--------------------------------

-----------------
-7-9-10-12-10-9--
-----------------
-----------------
-----------------
-----------------

4 comments:

Anonymous said...

thanks for your tab..
it helps me a lot..
God bless...

pagadz21 said...

hey... what effect did you use here??? thnx bro... your a blessing to us..... Godbless....

redz said...

tnx bro..

123 said...

If you are a fashion addict with limited budget, a fake watches would be your smart option. With affordable price, it is really the best substitute of the original one. While, in order to get one fabulous timepiece from the brand, you have to save much money and spend pretty penny on them.