Arise

By Jerome

Here are the tabs of Arise by Paul Baloche.



Intro & Verse:
---4-----2-----
--2-----0------
-4-----2-------
---------------
---------------
---------------

Chords
E B C#m A
(Chorus too...)

Endtro:
------------------------
------------------------
-9-11-13--8-6-8---------
------------------------
-7-9--11--6-4-6-7-------
---------------------5--
(Use as Pre-verse and at the end of Chorus)

Followed By:

------------------------
------------------------
-9-11-13--8-9-11--------
------------------------
-7-9--11--6-7-9---7-----
-----------------------5

2 comments:

Chris said...

KENNY GOT A STRAT!! thanks so much for all your doing!@~

kenny said...

Sorry to disappoint you, but it isn't me in the video :P