Saviour of the World

Here's Saviour of the World by Planetshakers.



Intro:
---10----------------
-8----7---8-8-7------
--------7-------7-9--
---------------------
---------------------
---------------------

-----10----------------
-7h8----7---8-8-7------
----------7-------7-9--
-----------------------
-----------------------
-----------------------

-----10----------------
-7h8----7---8-8-7------
----------7-------9-7--
-----------------------
-----------------------
-----------------------

--------------------
-----10--------10---
-9---------9--------
---7----7----7------
--------------------
--------------------

Verse:
Create a percussive effect with palm mutes.
------------------------------
------------------------------
-7--7-7--7-7--6--6-7--7-9----- (x3)
------------------------------
------------------------------
------------------------------

----------------
-----5-------5--
---7---7-6-7----
-7--------------
----------------
----------------

6 comments:

Anonymous said...

wow what scale is this

Anonymous said...

Where can I find the chords for this song ?

None of the Tab sites seem to have them .. :(

ilko said...

WHat is the delay settings for that song thanks and GOd Bless!

John said...

Yeah Seriously its a gud song but can u include the chords as well???

Shaun said...

I love your delay setting!!

Chris said...

Chords: Intro- D Em G Bm A... Verse D Em G A... Pre chorus- G A G A G Bm A... Chorus and ending are same as intro. Chris Fisha.

By the way, if I've broken any copyright laws, please delete this post. Hope it helped. Any questions email chrisfisha@aol.com or facebook me.