Endlessly

By Jerome

Here are the tabs by to Endlessly by the Desperation Band... use dist and trmolo eff. on the verse.



Intro: Strum (The intro is played too in Inst. part)
---------------------------
---------------------------
-9-8-9-11-14-13-14-13------
---------------------------
-7-6-7-9--12-11-12-11------
---------------------------

---------------------------
---------------------------
-8-6-8-9-6-8-9-------------
---------------------------
-6-4-6-7-4-6-7-------------
---------------------------
(octaves) repeat this part 2x. Use a tremolo for the verse.


Verse
-----------------
-----------------
-9--8--9--9----- (2x)
-9--9--9--9------
-----------------
-----------------

4 comments:

ryan said...

thx! i was listening to some desperation band's songs on youtube yesterday and i was hoping somebody would post a tab for this song :)
ty!

heya said...

thanks for the song!! :) godblessu

david said...

what kinda of tremolo pedal are u using???

Vincent Sam said...

What about pre-chorus/chorus/bridge?:D