My Saviour Lives

Use Fuzz and some delay in instrumental part.



Intro:
----------------------
----------------------
-4-4-4-6-6-6-6-6-9-9-9
----------------------
----------------------
----------------------

----------------------
----------------------
-9-6-8-6-4------------
----------------------
----------------------
----------------------

----------------------
----------------------
-4-4-4-6-6-6-6-6-9-9-9
----------------------
----------------------
----------------------

----------------------
----------------------
-9-11-11-11-11--------
----------------------
----------------------
----------------------

Instrumental:
-9-11-9-11---11-12-11-12-
----------12-------------
-------------------------
-------------------------
-------------------------
-------------------------

-9-11---9-11---11-12-11--
-----12-----12-----------
-------------------------
-------------------------
-------------------------
- -----------------------

-11-12-11-9-7---------
----------------------
----------------------
----------------------
----------------------
----------------------

8 comments:

Anonymous said...

heyy can you redo this song please?

thankss :)

Alex said...

the intro isnt right

Jabez said...

yeah it's really off.
esp the timing

Matthew Bailey said...

Go with this, this is how I play it:

e e e q e e q q e e e e
E|--------------------------------
A|-4-4-4H6---6-6s9--s8--s6s8s6s4--
D|--------------------------------

e e e q e e q q h
E|--------------------------------
A|-4-4-4H6---6-6s9--s8--s11-------
D|--------------------------------

It's pretty simple
e=eight
q=quarter
h=half
s=slide
H=hammer on

Christopher LaPierre said...

what key is this in?

James said...

Matt - I'm sure you mean for that to be on the G string. yeah?

Chris - it's in B. but the bridge changes to E and has an A in it.

AZNguitarist said...

actually in the intro if you listen carefully its octaves, then there is a second guitar that does octaves but its a harmony

anguskiker said...

there are two ways to do the intro. You can strum the notes referred to on Matthew Bailey's tab or you can alternate pick those notes with the open B string.

B---0---0---0---0----------------
G-4---6---9---8---6/8\6\4--------

Thats the exapmle of the first part but the best way to igure it out is youtube Tipsy Tricks. He is dbands guitarist and he shows alot of his riffs! Hope thats a help to someone! God Bless!