Running After You (with Delay)

Here're some ideas incorporating the delay effect into Running After You's verse and pre-chorus. The strumming part is quite tricky, so i've recorded myself without the backing track as well. You need to strum very precisely, timing-wise, else it'd get very messy.



Use a dotted 8th note delay throughout.

Verse
----------------------------------
-------0-------0-------0--------0-
-----3-------3-------3--------3---
---4-------4-------4--------4-----
-2--------------------------------
---------2-------0--------2-------

Pre-Chorus
Strum
G#m F#/A# B E
G#m F#/A# E Emaj7 E Emaj7

--6-----0------
--7-----0------
--6-----8------
--8-----9------
--9-----7------
--6-----0------
F#/A# Emaj7

2 comments:

Erick said...

just letting you know that you posted the wrong video.

kenny said...

yep fixed it already..