Lead Me to the Cross (variation)

By Jerome

I put my gain knob at 4 o'clock, treble and bass at 12.



Verse:
------------5----5---------
---3----3----3----2---3----
----2--2---2---------2-2---
--2---0---0-----2----------
-0-------------0----2------
---------------------------

---5-------------5---3----
----2---3---3-----2--3----
-------2---2-2-------0----
--2---0---0-----2----2----
-0-------------2---------
-------------------------

-5-----------5-----
--5------3-----3---
---2-2--2---2------
-------0---2-------
-------------------
-------------------

1 comment:

ken2012 said...

Fortunately for Replica Chanel Watches , they accept been able to improve every accumulating and archetypal they release. The case is one of the key credibility to creating the all-embracing watch in agreement of architecture and technology. Special absorption is paid to this allotment of the watch because of its accent to the all-embracing watch.